ISO-10303-21;
HEADER;
FILE_DESCRIPTION (( 'STEP AP214' ),
    '1' );
FILE_NAME ('KQ2P-16.step.step',
    '2017-09-14T13:08:26',
    ( 'Windows User' ),
    ( '' ),
    'SwSTEP 2.0',
    'SolidWorks 2017',
    '' );
FILE_SCHEMA (( 'AUTOMOTIVE_DESIGN' ));
ENDSEC;

DATA;
#1 = ORIENTED_EDGE ( 'NONE', *, *, #53, .F. ) ;
#2 = EDGE_LOOP ( 'NONE', ( #264, #41, #120, #42 ) ) ;
#3 = ORIENTED_EDGE ( 'NONE', *, *, #9, .T. ) ;
#4 = ORIENTED_EDGE ( 'NONE', *, *, #262, .T. ) ;
#5 = VERTEX_POINT ( 'NONE', #75 ) ;
#6 = ORIENTED_EDGE ( 'NONE', *, *, #262, .F. ) ;
#7 = AXIS2_PLACEMENT_3D ( 'NONE', #230, #199, #159 ) ;
#8 = EDGE_CURVE ( 'NONE', #5, #224, #223, .T. ) ;
#9 = EDGE_CURVE ( 'NONE', #24, #60, #250, .T. ) ;
#10 = ORIENTED_EDGE ( 'NONE', *, *, #254, .T. ) ;
#11 = AXIS2_PLACEMENT_3D ( 'NONE', #185, #261, #265 ) ;
#12 = ORIENTED_EDGE ( 'NONE', *, *, #158, .T. ) ;
#13 = EDGE_LOOP ( 'NONE', ( #64, #26, #27, #21 ) ) ;
#14 = DIRECTION ( 'NONE',  ( 0.0000000000000000000, -0.0000000000000000000, 1.000000000000000000 ) ) ;
#15 = ORIENTED_EDGE ( 'NONE', *, *, #158, .F. ) ;
#16 = DIRECTION ( 'NONE',  ( 0.0000000000000000000, -0.0000000000000000000, 1.000000000000000000 ) ) ;
#17 = MECHANICAL_DESIGN_GEOMETRIC_PRESENTATION_REPRESENTATION (  '', ( #84 ), #57 ) ;
#18 = DIRECTION ( 'NONE',  ( 0.0000000000000000000, 0.0000000000000000000, 1.000000000000000000 ) ) ;
#19 = ORIENTED_EDGE ( 'NONE', *, *, #251, .F. ) ;
#20 = AXIS2_PLACEMENT_3D ( 'NONE', #66, #156, #210 ) ;
#21 = ORIENTED_EDGE ( 'NONE', *, *, #9, .F. ) ;
#22 = ORIENTED_EDGE ( 'NONE', *, *, #251, .T. ) ;
#23 = CARTESIAN_POINT ( 'NONE',  ( 0.0000000000000000000, 23.50000000000000000, -8.000000000000000000 ) ) ;
#24 = VERTEX_POINT ( 'NONE', #85 ) ;
#25 =( LENGTH_UNIT ( ) NAMED_UNIT ( * ) SI_UNIT ( .MILLI., .METRE. ) );
#26 = ORIENTED_EDGE ( 'NONE', *, *, #268, .T. ) ;
#27 = ORIENTED_EDGE ( 'NONE', *, *, #145, .T. ) ;
#28 = PRODUCT_DEFINITION_SHAPE ( 'NONE', 'NONE',  #150 ) ;
#29 = EDGE_LOOP ( 'NONE', ( #15, #31, #216, #1 ) ) ;
#30 = DIRECTION ( 'NONE',  ( 0.0000000000000000000, -1.000000000000000000, 0.0000000000000000000 ) ) ;
#31 = ORIENTED_EDGE ( 'NONE', *, *, #236, .F. ) ;
#32 = CARTESIAN_POINT ( 'NONE',  ( 0.0000000000000000000, -5.500000000000001800, 0.0000000000000000000 ) ) ;
#33 = DIRECTION ( 'NONE',  ( 0.0000000000000000000, -1.000000000000000000, 0.0000000000000000000 ) ) ;
#34 = ORIENTED_EDGE ( 'NONE', *, *, #225, .F. ) ;
#35 = EDGE_CURVE ( 'NONE', #224, #24, #226, .T. ) ;
#36 = ORIENTED_EDGE ( 'NONE', *, *, #236, .T. ) ;
#37 = AXIS2_PLACEMENT_3D ( 'NONE', #69, #33, #149 ) ;
#38 = ORIENTED_EDGE ( 'NONE', *, *, #61, .F. ) ;
#39 = DIRECTION ( 'NONE',  ( 0.0000000000000000000, -1.000000000000000000, 0.0000000000000000000 ) ) ;
#40 = VERTEX_POINT ( 'NONE', #80 ) ;
#41 = ORIENTED_EDGE ( 'NONE', *, *, #35, .T. ) ;
#42 = ORIENTED_EDGE ( 'NONE', *, *, #145, .F. ) ;
#43 = VERTEX_POINT ( 'NONE', #109 ) ;
#44 = CARTESIAN_POINT ( 'NONE',  ( 1.279755905108984200E-015, -6.391727073952196700, 10.44999999999999900 ) ) ;
#45 = ADVANCED_FACE ( 'NONE', ( #200 ), #249, .T. ) ;
#46 = EDGE_LOOP ( 'NONE', ( #10, #3 ) ) ;
#47 =( GEOMETRIC_REPRESENTATION_CONTEXT ( 3 ) GLOBAL_UNCERTAINTY_ASSIGNED_CONTEXT ( ( #133 ) ) GLOBAL_UNIT_ASSIGNED_CONTEXT ( ( #182, #272, #258 ) ) REPRESENTATION_CONTEXT ( 'NONE', 'WORKASPACE' ) );
#48 = VERTEX_POINT ( 'NONE', #91 ) ;
#49 = ORIENTED_EDGE ( 'NONE', *, *, #8, .T. ) ;
#50 = ORIENTED_EDGE ( 'NONE', *, *, #161, .T. ) ;
#51 = VECTOR ( 'NONE', #190, 1000.000000000000000 ) ;
#52 = UNCERTAINTY_MEASURE_WITH_UNIT (LENGTH_MEASURE( 1.000000000000000100E-005 ), #25, 'distance_accuracy_value', 'NONE');
#53 = EDGE_CURVE ( 'NONE', #5, #63, #211, .T. ) ;
#54 = FILL_AREA_STYLE_COLOUR ( '', #111 ) ;
#55 = ORIENTED_EDGE ( 'NONE', *, *, #53, .T. ) ;
#56 = EDGE_LOOP ( 'NONE', ( #183, #55, #22, #239 ) ) ;
#57 =( GEOMETRIC_REPRESENTATION_CONTEXT ( 3 ) GLOBAL_UNCERTAINTY_ASSIGNED_CONTEXT ( ( #74 ) ) GLOBAL_UNIT_ASSIGNED_CONTEXT ( ( #189, #127, #255 ) ) REPRESENTATION_CONTEXT ( 'NONE', 'WORKASPACE' ) );
#58 = DIRECTION ( 'NONE',  ( 0.0000000000000000000, 0.0000000000000000000, -1.000000000000000000 ) ) ;
#59 = DIRECTION ( 'NONE',  ( 0.0000000000000000000, 0.0000000000000000000, -1.000000000000000000 ) ) ;
#60 = VERTEX_POINT ( 'NONE', #213 ) ;
#61 = EDGE_CURVE ( 'NONE', #40, #63, #214, .T. ) ;
#62 = AXIS2_PLACEMENT_3D ( 'NONE', #181, #180, #153 ) ;
#63 = VERTEX_POINT ( 'NONE', #79 ) ;
#64 = ORIENTED_EDGE ( 'NONE', *, *, #35, .F. ) ;
#65 = COLOUR_RGB ( '',0.9529411764705881800, 0.9529411764705881800, 0.9529411764705881800 ) ;
#66 = CARTESIAN_POINT ( 'NONE',  ( 0.0000000000000000000, -6.391727073952196700, 0.0000000000000000000 ) ) ;
#67 = ADVANCED_FACE ( 'NONE', ( #202 ), #237, .T. ) ;
#68 = SURFACE_STYLE_FILL_AREA ( #241 ) ;
#69 = CARTESIAN_POINT ( 'NONE',  ( 0.0000000000000000000, -23.50000000000000000, 0.0000000000000000000 ) ) ;
#70 = DIRECTION ( 'NONE',  ( 0.0000000000000000000, 0.0000000000000000000, 1.000000000000000000 ) ) ;
#71 = PLANE ( 'NONE',  #276 ) ;
#72 =( NAMED_UNIT ( * ) SI_UNIT ( $, .STERADIAN. ) SOLID_ANGLE_UNIT ( ) );
#73 = APPLICATION_PROTOCOL_DEFINITION ( 'draft international standard', 'automotive_design', 1998, #203 ) ;
#74 = UNCERTAINTY_MEASURE_WITH_UNIT (LENGTH_MEASURE( 1.000000000000000100E-005 ), #189, 'distance_accuracy_value', 'NONE');
#75 = CARTESIAN_POINT ( 'NONE',  ( 9.797174393178825700E-016, -5.500000000000001800, 8.000000000000000000 ) ) ;
#76 = DIRECTION ( 'NONE',  ( -0.0000000000000000000, -1.000000000000000000, -0.0000000000000000000 ) ) ;
#77 = APPLICATION_PROTOCOL_DEFINITION ( 'draft international standard', 'automotive_design', 1998, #205 ) ;
#78 = CARTESIAN_POINT ( 'NONE',  ( 0.0000000000000000000, 0.0000000000000000000, 0.0000000000000000000 ) ) ;
#79 = CARTESIAN_POINT ( 'NONE',  ( 0.0000000000000000000, -5.500000000000001800, -8.000000000000000000 ) ) ;
#80 = CARTESIAN_POINT ( 'NONE',  ( 0.0000000000000000000, 23.50000000000000000, -8.000000000000000000 ) ) ;
#81 = CARTESIAN_POINT ( 'NONE',  ( 0.0000000000000000000, -6.391727073952196700, -10.44999999999999900 ) ) ;
#82 = EDGE_LOOP ( 'NONE', ( #6, #12, #219, #38 ) ) ;
#83 = CARTESIAN_POINT ( 'NONE',  ( 0.0000000000000000000, -23.50000000000000000, 0.0000000000000000000 ) ) ;
#84 = STYLED_ITEM ( 'NONE', ( #86 ), #193 ) ;
#85 = CARTESIAN_POINT ( 'NONE',  ( 1.279755905108984200E-015, -23.50000000000000000, 10.44999999999999900 ) ) ;
#86 = PRESENTATION_STYLE_ASSIGNMENT (( #126 ) ) ;
#87 = CYLINDRICAL_SURFACE ( 'NONE', #99, 10.44999999999999900 ) ;
#88 = SURFACE_SIDE_STYLE ('',( #68 ) ) ;
#89 = FACE_OUTER_BOUND ( 'NONE', #2, .T. ) ;
#90 = AXIS2_PLACEMENT_3D ( 'NONE', #132, #118, #119 ) ;
#91 = CARTESIAN_POINT ( 'NONE',  ( 9.797174393178825700E-016, 23.50000000000000000, 8.000000000000000000 ) ) ;
#92 = SHAPE_DEFINITION_REPRESENTATION ( #231, #186 ) ;
#93 = AXIS2_PLACEMENT_3D ( 'NONE', #179, #165, #175 ) ;
#94 = SHAPE_DEFINITION_REPRESENTATION ( #28, #266 ) ;
#95 = DIRECTION ( 'NONE',  ( 0.0000000000000000000, 0.0000000000000000000, -1.000000000000000000 ) ) ;
#96 = AXIS2_PLACEMENT_3D ( 'NONE', #125, #128, #95 ) ;
#97 = AXIS2_PLACEMENT_3D ( 'NONE', #271, #259, #18 ) ;
#98 = DIRECTION ( 'NONE',  ( 0.0000000000000000000, 1.000000000000000000, 0.0000000000000000000 ) ) ;
#99 = AXIS2_PLACEMENT_3D ( 'NONE', #235, #39, #59 ) ;
#100 = VECTOR ( 'NONE', #113, 1000.000000000000000 ) ;
#101 = AXIS2_PLACEMENT_3D ( 'NONE', #78, #204, #227 ) ;
#102 = STYLED_ITEM ( 'NONE', ( #117 ), #253 ) ;
#103 = EDGE_LOOP ( 'NONE', ( #36, #4 ) ) ;
#104 = ITEM_DEFINED_TRANSFORMATION ( 'NONE', 'NONE', #139,  #11 ) ;
#105 = CARTESIAN_POINT ( 'NONE',  ( 1.279755905108983800E-015, -6.391727073952196700, 10.44999999999999900 ) ) ;
#106 = CONTEXT_DEPENDENT_SHAPE_REPRESENTATION ( #122, #123 ) ;
#107 = DIRECTION ( 'NONE',  ( -0.0000000000000000000, -1.000000000000000000, -0.0000000000000000000 ) ) ;
#108 = PRODUCT_CONTEXT ( 'NONE', #203, 'mechanical' ) ;
#109 = CARTESIAN_POINT ( 'NONE',  ( 0.0000000000000000000, -6.391727073952196700, -10.44999999999999900 ) ) ;
#110 = DIRECTION ( 'NONE',  ( -0.0000000000000000000, -1.000000000000000000, -0.0000000000000000000 ) ) ;
#111 = COLOUR_RGB ( '',0.9529411764705881800, 0.9529411764705881800, 0.9529411764705881800 ) ;
#112 = UNCERTAINTY_MEASURE_WITH_UNIT (LENGTH_MEASURE( 1.000000000000000100E-005 ), #192, 'distance_accuracy_value', 'NONE');
#113 = DIRECTION ( 'NONE',  ( -0.0000000000000000000, -1.000000000000000000, -0.0000000000000000000 ) ) ;
#114 = AXIS2_PLACEMENT_3D ( 'NONE', #208, #170, #129 ) ;
#115 = FACE_OUTER_BOUND ( 'NONE', #46, .T. ) ;
#116 = PRODUCT_CONTEXT ( 'NONE', #263, 'mechanical' ) ;
#117 = PRESENTATION_STYLE_ASSIGNMENT (( #152 ) ) ;
#118 = DIRECTION ( 'NONE',  ( -0.0000000000000000000, -1.000000000000000000, -0.0000000000000000000 ) ) ;
#119 = DIRECTION ( 'NONE',  ( 0.0000000000000000000, 0.0000000000000000000, -1.000000000000000000 ) ) ;
#120 = ORIENTED_EDGE ( 'NONE', *, *, #254, .F. ) ;
#121 = APPLICATION_PROTOCOL_DEFINITION ( 'draft international standard', 'automotive_design', 1998, #177 ) ;
#122 =( REPRESENTATION_RELATIONSHIP ('NONE','NONE', #186, #266 ) REPRESENTATION_RELATIONSHIP_WITH_TRANSFORMATION ( #104 )SHAPE_REPRESENTATION_RELATIONSHIP( ) );
#123 = PRODUCT_DEFINITION_SHAPE ( 'NONE', 'NONE',  #277 ) ;
#124 = PLANE ( 'NONE',  #240 ) ;
#125 = CARTESIAN_POINT ( 'NONE',  ( 0.0000000000000000000, -5.500000000000001800, 0.0000000000000000000 ) ) ;
#126 = SURFACE_STYLE_USAGE ( .BOTH. , #88 ) ;
#127 =( NAMED_UNIT ( * ) PLANE_ANGLE_UNIT ( ) SI_UNIT ( $, .RADIAN. ) );
#128 = DIRECTION ( 'NONE',  ( 0.0000000000000000000, -1.000000000000000000, 0.0000000000000000000 ) ) ;
#129 = DIRECTION ( 'NONE',  ( 0.0000000000000000000, 0.0000000000000000000, -1.000000000000000000 ) ) ;
#130 = CARTESIAN_POINT ( 'NONE',  ( 0.0000000000000000000, 23.50000000000000000, 0.0000000000000000000 ) ) ;
#131 = DIRECTION ( 'NONE',  ( 0.0000000000000000000, 0.0000000000000000000, -1.000000000000000000 ) ) ;
#132 = CARTESIAN_POINT ( 'NONE',  ( 0.0000000000000000000, 23.50000000000000000, 0.0000000000000000000 ) ) ;
#133 = UNCERTAINTY_MEASURE_WITH_UNIT (LENGTH_MEASURE( 1.000000000000000100E-005 ), #182, 'distance_accuracy_value', 'NONE');
#134 = PRODUCT_RELATED_PRODUCT_CATEGORY ( 'part', '', ( #194 ) ) ;
#135 = CARTESIAN_POINT ( 'NONE',  ( 0.0000000000000000000, -6.391727073952196700, 0.0000000000000000000 ) ) ;
#136 = CIRCLE ( 'NONE', #7, 8.000000000000000000 ) ;
#137 = AXIS2_PLACEMENT_3D ( 'NONE', #246, #195, #196 ) ;
#138 =( GEOMETRIC_REPRESENTATION_CONTEXT ( 3 ) GLOBAL_UNCERTAINTY_ASSIGNED_CONTEXT ( ( #112 ) ) GLOBAL_UNIT_ASSIGNED_CONTEXT ( ( #192, #217, #72 ) ) REPRESENTATION_CONTEXT ( 'NONE', 'WORKASPACE' ) );
#139 = AXIS2_PLACEMENT_3D ( 'NONE', #244, #70, #171 ) ;
#140 = ADVANCED_FACE ( 'NONE', ( #228 ), #207, .T. ) ;
#141 = EDGE_LOOP ( 'NONE', ( #50, #49, #34, #19 ) ) ;
#142 = PRODUCT_DEFINITION_FORMATION_WITH_SPECIFIED_SOURCE ( 'ANY', '', #194, .NOT_KNOWN. ) ;
#143 = PRODUCT_RELATED_PRODUCT_CATEGORY ( 'part', '', ( #234 ) ) ;
#144 = PRODUCT_DEFINITION ( 'UNKNOWN', '', #142, #173 ) ;
#145 = EDGE_CURVE ( 'NONE', #43, #60, #198, .T. ) ;
#146 = PRODUCT_DEFINITION_FORMATION_WITH_SPECIFIED_SOURCE ( 'ANY', '', #234, .NOT_KNOWN. ) ;
#147 = FACE_OUTER_BOUND ( 'NONE', #141, .T. ) ;
#148 = PRESENTATION_LAYER_ASSIGNMENT (  '', '', ( #84 ) ) ;
#149 = DIRECTION ( 'NONE',  ( 0.0000000000000000000, 0.0000000000000000000, -1.000000000000000000 ) ) ;
#150 = PRODUCT_DEFINITION ( 'UNKNOWN', '', #146, #274 ) ;
#151 = AXIS2_PLACEMENT_3D ( 'NONE', #135, #220, #160 ) ;
#152 = SURFACE_STYLE_USAGE ( .BOTH. , #167 ) ;
#153 = DIRECTION ( 'NONE',  ( 0.0000000000000000000, 0.0000000000000000000, -1.000000000000000000 ) ) ;
#154 = AXIS2_PLACEMENT_3D ( 'NONE', #32, #30, #58 ) ;
#155 = ADVANCED_FACE ( 'NONE', ( #243 ), #270, .T. ) ;
#156 = DIRECTION ( 'NONE',  ( -0.0000000000000000000, -1.000000000000000000, -0.0000000000000000000 ) ) ;
#157 =( GEOMETRIC_REPRESENTATION_CONTEXT ( 3 ) GLOBAL_UNCERTAINTY_ASSIGNED_CONTEXT ( ( #52 ) ) GLOBAL_UNIT_ASSIGNED_CONTEXT ( ( #25, #260, #273 ) ) REPRESENTATION_CONTEXT ( 'NONE', 'WORKASPACE' ) );
#158 = EDGE_CURVE ( 'NONE', #48, #5, #187, .T. ) ;
#159 = DIRECTION ( 'NONE',  ( 0.0000000000000000000, 0.0000000000000000000, 1.000000000000000000 ) ) ;
#160 = DIRECTION ( 'NONE',  ( 0.0000000000000000000, 0.0000000000000000000, -1.000000000000000000 ) ) ;
#161 = EDGE_CURVE ( 'NONE', #63, #5, #218, .T. ) ;
#162 = DIRECTION ( 'NONE',  ( 0.0000000000000000000, -1.000000000000000000, 0.0000000000000000000 ) ) ;
#163 = CARTESIAN_POINT ( 'NONE',  ( 0.0000000000000000000, -5.500000000000001800, -10.44999999999999900 ) ) ;
#164 = CARTESIAN_POINT ( 'NONE',  ( 0.0000000000000000000, 23.50000000000000000, 0.0000000000000000000 ) ) ;
#165 = DIRECTION ( 'NONE',  ( -0.0000000000000000000, -1.000000000000000000, -0.0000000000000000000 ) ) ;
#166 = ADVANCED_FACE ( 'NONE', ( #257 ), #124, .T. ) ;
#167 = SURFACE_SIDE_STYLE ('',( #221 ) ) ;
#168 = CARTESIAN_POINT ( 'NONE',  ( 9.797174393178825700E-016, 23.50000000000000000, 8.000000000000000000 ) ) ;
#169 = FILL_AREA_STYLE ('',( #54 ) ) ;
#170 = DIRECTION ( 'NONE',  ( 0.0000000000000000000, -1.000000000000000000, 0.0000000000000000000 ) ) ;
#171 = DIRECTION ( 'NONE',  ( 1.000000000000000000, 0.0000000000000000000, 0.0000000000000000000 ) ) ;
#172 = CARTESIAN_POINT ( 'NONE',  ( 1.279755905108984200E-015, -5.500000000000001800, 10.44999999999999900 ) ) ;
#173 = PRODUCT_DEFINITION_CONTEXT ( 'detailed design', #177, 'design' ) ;
#174 = ADVANCED_FACE ( 'NONE', ( #147 ), #188, .T. ) ;
#175 = DIRECTION ( 'NONE',  ( 0.0000000000000000000, 0.0000000000000000000, -1.000000000000000000 ) ) ;
#176 = DIRECTION ( 'NONE',  ( 1.150791560227851500E-016, -0.3420201433256656000, 0.9396926207859095400 ) ) ;
#177 = APPLICATION_CONTEXT ( 'automotive_design' ) ;
#178 = DIRECTION ( 'NONE',  ( 0.0000000000000000000, -1.000000000000000000, 0.0000000000000000000 ) ) ;
#179 = CARTESIAN_POINT ( 'NONE',  ( 0.0000000000000000000, -6.391727073952196700, 0.0000000000000000000 ) ) ;
#180 = DIRECTION ( 'NONE',  ( 0.0000000000000000000, -1.000000000000000000, 0.0000000000000000000 ) ) ;
#181 = CARTESIAN_POINT ( 'NONE',  ( 0.0000000000000000000, -23.50000000000000000, 0.0000000000000000000 ) ) ;
#182 =( LENGTH_UNIT ( ) NAMED_UNIT ( * ) SI_UNIT ( .MILLI., .METRE. ) );
#183 = ORIENTED_EDGE ( 'NONE', *, *, #8, .F. ) ;
#184 = CARTESIAN_POINT ( 'NONE',  ( 0.0000000000000000000, -6.391727073952196700, 0.0000000000000000000 ) ) ;
#185 = CARTESIAN_POINT ( 'NONE',  ( 0.0000000000000000000, 0.0000000000000000000, 0.0000000000000000000 ) ) ;
#186 = SHAPE_REPRESENTATION ( 'KQ2P-16.step', ( #137, #139 ), #138 ) ;
#187 = LINE ( 'NONE', #168, #233 ) ;
#188 = CONICAL_SURFACE ( 'NONE', #20, 10.44999999999999900, 1.221730476396033900 ) ;
#189 =( LENGTH_UNIT ( ) NAMED_UNIT ( * ) SI_UNIT ( .MILLI., .METRE. ) );
#190 = DIRECTION ( 'NONE',  ( 0.0000000000000000000, -0.3420201433256656000, -0.9396926207859095400 ) ) ;
#191 = PRESENTATION_LAYER_ASSIGNMENT (  '', '', ( #102 ) ) ;
#192 =( LENGTH_UNIT ( ) NAMED_UNIT ( * ) SI_UNIT ( .MILLI., .METRE. ) );
#193 = ADVANCED_BREP_SHAPE_REPRESENTATION ( '', ( #253, #11 ), #157 ) ;
#194 = PRODUCT ( 'KQ2P-16.step', 'KQ2P-16.step', '', ( #108 ) ) ;
#195 = DIRECTION ( 'NONE',  ( 0.0000000000000000000, 0.0000000000000000000, 1.000000000000000000 ) ) ;
#196 = DIRECTION ( 'NONE',  ( 1.000000000000000000, 0.0000000000000000000, 0.0000000000000000000 ) ) ;
#197 = CIRCLE ( 'NONE', #93, 10.44999999999999900 ) ;
#198 = LINE ( 'NONE', #163, #242 ) ;
#199 = DIRECTION ( 'NONE',  ( 0.0000000000000000000, 1.000000000000000000, 0.0000000000000000000 ) ) ;
#200 = FACE_OUTER_BOUND ( 'NONE', #56, .T. ) ;
#201 = VECTOR ( 'NONE', #178, 1000.000000000000000 ) ;
#202 = FACE_OUTER_BOUND ( 'NONE', #29, .T. ) ;
#203 = APPLICATION_CONTEXT ( 'automotive_design' ) ;
#204 = DIRECTION ( 'NONE',  ( 0.0000000000000000000, 0.0000000000000000000, 1.000000000000000000 ) ) ;
#205 = APPLICATION_CONTEXT ( 'automotive_design' ) ;
#206 = APPLICATION_PROTOCOL_DEFINITION ( 'draft international standard', 'automotive_design', 1998, #263 ) ;
#207 = CYLINDRICAL_SURFACE ( 'NONE', #267, 8.000000000000000000 ) ;
#208 = CARTESIAN_POINT ( 'NONE',  ( 0.0000000000000000000, -5.500000000000001800, 0.0000000000000000000 ) ) ;
#209 = VECTOR ( 'NONE', #176, 1000.000000000000000 ) ;
#210 = DIRECTION ( 'NONE',  ( 0.0000000000000000000, 0.0000000000000000000, -1.000000000000000000 ) ) ;
#211 = CIRCLE ( 'NONE', #96, 8.000000000000000000 ) ;
#212 = DIRECTION ( 'NONE',  ( 0.0000000000000000000, 1.000000000000000000, 0.0000000000000000000 ) ) ;
#213 = CARTESIAN_POINT ( 'NONE',  ( 0.0000000000000000000, -23.50000000000000000, -10.44999999999999900 ) ) ;
#214 = LINE ( 'NONE', #23, #100 ) ;
#215 = MECHANICAL_DESIGN_GEOMETRIC_PRESENTATION_REPRESENTATION (  '', ( #102 ), #47 ) ;
#216 = ORIENTED_EDGE ( 'NONE', *, *, #61, .T. ) ;
#217 =( NAMED_UNIT ( * ) PLANE_ANGLE_UNIT ( ) SI_UNIT ( $, .RADIAN. ) );
#218 = CIRCLE ( 'NONE', #154, 8.000000000000000000 ) ;
#219 = ORIENTED_EDGE ( 'NONE', *, *, #161, .F. ) ;
#220 = DIRECTION ( 'NONE',  ( -0.0000000000000000000, -1.000000000000000000, -0.0000000000000000000 ) ) ;
#221 = SURFACE_STYLE_FILL_AREA ( #169 ) ;
#222 = SHAPE_REPRESENTATION_RELATIONSHIP ( 'NONE' , 'NONE' ,  #266, #193 ) ;
#223 = LINE ( 'NONE', #105, #209 ) ;
#224 = VERTEX_POINT ( 'NONE', #44 ) ;
#225 = EDGE_CURVE ( 'NONE', #43, #224, #252, .T. ) ;
#226 = LINE ( 'NONE', #172, #201 ) ;
#227 = DIRECTION ( 'NONE',  ( 1.000000000000000000, 0.0000000000000000000, 0.0000000000000000000 ) ) ;
#228 = FACE_OUTER_BOUND ( 'NONE', #82, .T. ) ;
#229 = DIRECTION ( 'NONE',  ( 0.0000000000000000000, 0.0000000000000000000, -1.000000000000000000 ) ) ;
#230 = CARTESIAN_POINT ( 'NONE',  ( 0.0000000000000000000, 23.50000000000000000, 0.0000000000000000000 ) ) ;
#231 = PRODUCT_DEFINITION_SHAPE ( 'NONE', 'NONE',  #144 ) ;
#232 = ADVANCED_FACE ( 'NONE', ( #115 ), #71, .F. ) ;
#233 = VECTOR ( 'NONE', #107, 1000.000000000000000 ) ;
#234 = PRODUCT ( 'KQ2P-16.step_KQ2P_16', 'KQ2P-16.step_KQ2P_16', '', ( #116 ) ) ;
#235 = CARTESIAN_POINT ( 'NONE',  ( 0.0000000000000000000, -5.500000000000001800, 0.0000000000000000000 ) ) ;
#236 = EDGE_CURVE ( 'NONE', #40, #48, #136, .T. ) ;
#237 = CYLINDRICAL_SURFACE ( 'NONE', #90, 8.000000000000000000 ) ;
#238 = CLOSED_SHELL ( 'NONE', ( #174, #245, #140, #67, #166, #155, #232, #45 ) ) ;
#239 = ORIENTED_EDGE ( 'NONE', *, *, #268, .F. ) ;
#240 = AXIS2_PLACEMENT_3D ( 'NONE', #164, #212, #14 ) ;
#241 = FILL_AREA_STYLE ('',( #256 ) ) ;
#242 = VECTOR ( 'NONE', #162, 1000.000000000000000 ) ;
#243 = FACE_OUTER_BOUND ( 'NONE', #13, .T. ) ;
#244 = CARTESIAN_POINT ( 'NONE',  ( 0.0000000000000000000, 0.0000000000000000000, 0.0000000000000000000 ) ) ;
#245 = ADVANCED_FACE ( 'NONE', ( #89 ), #87, .T. ) ;
#246 = CARTESIAN_POINT ( 'NONE',  ( 0.0000000000000000000, 0.0000000000000000000, 0.0000000000000000000 ) ) ;
#247 = LINE ( 'NONE', #81, #51 ) ;
#248 = CIRCLE ( 'NONE', #97, 8.000000000000000000 ) ;
#249 = CONICAL_SURFACE ( 'NONE', #269, 10.44999999999999900, 1.221730476396033900 ) ;
#250 = CIRCLE ( 'NONE', #37, 10.44999999999999900 ) ;
#251 = EDGE_CURVE ( 'NONE', #63, #43, #247, .T. ) ;
#252 = CIRCLE ( 'NONE', #151, 10.44999999999999900 ) ;
#253 = MANIFOLD_SOLID_BREP ( 'Chamfer', #238 ) ;
#254 = EDGE_CURVE ( 'NONE', #60, #24, #275, .T. ) ;
#255 =( NAMED_UNIT ( * ) SI_UNIT ( $, .STERADIAN. ) SOLID_ANGLE_UNIT ( ) );
#256 = FILL_AREA_STYLE_COLOUR ( '', #65 ) ;
#257 = FACE_OUTER_BOUND ( 'NONE', #103, .T. ) ;
#258 =( NAMED_UNIT ( * ) SI_UNIT ( $, .STERADIAN. ) SOLID_ANGLE_UNIT ( ) );
#259 = DIRECTION ( 'NONE',  ( 0.0000000000000000000, 1.000000000000000000, 0.0000000000000000000 ) ) ;
#260 =( NAMED_UNIT ( * ) PLANE_ANGLE_UNIT ( ) SI_UNIT ( $, .RADIAN. ) );
#261 = DIRECTION ( 'NONE',  ( 0.0000000000000000000, 0.0000000000000000000, 1.000000000000000000 ) ) ;
#262 = EDGE_CURVE ( 'NONE', #48, #40, #248, .T. ) ;
#263 = APPLICATION_CONTEXT ( 'automotive_design' ) ;
#264 = ORIENTED_EDGE ( 'NONE', *, *, #225, .T. ) ;
#265 = DIRECTION ( 'NONE',  ( 1.000000000000000000, 0.0000000000000000000, 0.0000000000000000000 ) ) ;
#266 = SHAPE_REPRESENTATION ( 'KQ2P-16.step_KQ2P_16', ( #11 ), #157 ) ;
#267 = AXIS2_PLACEMENT_3D ( 'NONE', #130, #110, #131 ) ;
#268 = EDGE_CURVE ( 'NONE', #224, #43, #197, .T. ) ;
#269 = AXIS2_PLACEMENT_3D ( 'NONE', #184, #76, #229 ) ;
#270 = CYLINDRICAL_SURFACE ( 'NONE', #114, 10.44999999999999900 ) ;
#271 = CARTESIAN_POINT ( 'NONE',  ( 0.0000000000000000000, 23.50000000000000000, 0.0000000000000000000 ) ) ;
#272 =( NAMED_UNIT ( * ) PLANE_ANGLE_UNIT ( ) SI_UNIT ( $, .RADIAN. ) );
#273 =( NAMED_UNIT ( * ) SI_UNIT ( $, .STERADIAN. ) SOLID_ANGLE_UNIT ( ) );
#274 = PRODUCT_DEFINITION_CONTEXT ( 'detailed design', #205, 'design' ) ;
#275 = CIRCLE ( 'NONE', #62, 10.44999999999999900 ) ;
#276 = AXIS2_PLACEMENT_3D ( 'NONE', #83, #98, #16 ) ;
#277 = NEXT_ASSEMBLY_USAGE_OCCURRENCE ( 'NAUO1', ' ', ' ', #144, #150, $ ) ;
ENDSEC;
END-ISO-10303-21;
