ISO-10303-21;
HEADER;
FILE_DESCRIPTION (( 'STEP AP214' ),
    '1' );
FILE_NAME ('TS1075W-20.step.step',
    '2017-05-11T11:29:33',
    ( 'Windows User' ),
    ( '' ),
    'SwSTEP 2.0',
    'SolidWorks 2017',
    '' );
FILE_SCHEMA (( 'AUTOMOTIVE_DESIGN' ));
ENDSEC;

DATA;
#1 = ORIENTED_EDGE ( 'NONE', *, *, #23, .F. ) ;
#2 = PRODUCT_DEFINITION_SHAPE ( 'NONE', 'NONE',  #251 ) ;
#3 = PRODUCT_DEFINITION_FORMATION_WITH_SPECIFIED_SOURCE ( 'ANY', '', #184, .NOT_KNOWN. ) ;
#4 = DIRECTION ( 'NONE',  ( 1.000000000000000000, 0.0000000000000000000, 0.0000000000000000000 ) ) ;
#5 = DIRECTION ( 'NONE',  ( 1.000000000000000000, 0.0000000000000000000, 0.0000000000000000000 ) ) ;
#6 = DIRECTION ( 'NONE',  ( 0.0000000000000000000, 0.0000000000000000000, -1.000000000000000000 ) ) ;
#7 = EDGE_CURVE ( 'NONE', #200, #226, #62, .T. ) ;
#8 = COLOUR_RGB ( '',1.000000000000000000, 1.000000000000000000, 1.000000000000000000 ) ;
#9 = PRESENTATION_LAYER_ASSIGNMENT (  '', '', ( #221 ) ) ;
#10 = VERTEX_POINT ( 'NONE', #124 ) ;
#11 = FACE_BOUND ( 'NONE', #94, .T. ) ;
#12 = CIRCLE ( 'NONE', #187, 3.750000000000000000 ) ;
#13 = DIRECTION ( 'NONE',  ( 1.000000000000000000, 0.0000000000000000000, 0.0000000000000000000 ) ) ;
#14 =( NAMED_UNIT ( * ) PLANE_ANGLE_UNIT ( ) SI_UNIT ( $, .RADIAN. ) );
#15 = ORIENTED_EDGE ( 'NONE', *, *, #224, .F. ) ;
#16 = DIRECTION ( 'NONE',  ( 0.0000000000000000000, 0.0000000000000000000, 1.000000000000000000 ) ) ;
#17 = CARTESIAN_POINT ( 'NONE',  ( 50.00000000000000000, 0.0000000000000000000, 0.0000000000000000000 ) ) ;
#18 = CONTEXT_DEPENDENT_SHAPE_REPRESENTATION ( #20, #2 ) ;
#19 = PRODUCT_RELATED_PRODUCT_CATEGORY ( 'part', '', ( #184 ) ) ;
#20 =( REPRESENTATION_RELATIONSHIP ('NONE','NONE', #84, #165 ) REPRESENTATION_RELATIONSHIP_WITH_TRANSFORMATION ( #173 )SHAPE_REPRESENTATION_RELATIONSHIP( ) );
#21 = CIRCLE ( 'NONE', #101, 5.000000000000000000 ) ;
#22 = CARTESIAN_POINT ( 'NONE',  ( 50.00000000000000000, 0.0000000000000000000, 3.750000000000000000 ) ) ;
#23 = EDGE_CURVE ( 'NONE', #226, #69, #232, .T. ) ;
#24 = MECHANICAL_DESIGN_GEOMETRIC_PRESENTATION_REPRESENTATION (  '', ( #221 ), #35 ) ;
#25 = FACE_OUTER_BOUND ( 'NONE', #36, .T. ) ;
#26 = VERTEX_POINT ( 'NONE', #183 ) ;
#27 = CARTESIAN_POINT ( 'NONE',  ( 50.00000000000000000, 0.0000000000000000000, 3.750000000000000000 ) ) ;
#28 = PRODUCT_DEFINITION_FORMATION_WITH_SPECIFIED_SOURCE ( 'ANY', '', #199, .NOT_KNOWN. ) ;
#29 = CLOSED_SHELL ( 'NONE', ( #223, #239, #164, #180, #144, #68 ) ) ;
#30 = PLANE ( 'NONE',  #148 ) ;
#31 = CARTESIAN_POINT ( 'NONE',  ( 50.00000000000000000, 0.0000000000000000000, 0.0000000000000000000 ) ) ;
#32 = AXIS2_PLACEMENT_3D ( 'NONE', #104, #5, #216 ) ;
#33 = FILL_AREA_STYLE ('',( #96 ) ) ;
#34 =( NAMED_UNIT ( * ) PLANE_ANGLE_UNIT ( ) SI_UNIT ( $, .RADIAN. ) );
#35 =( GEOMETRIC_REPRESENTATION_CONTEXT ( 3 ) GLOBAL_UNCERTAINTY_ASSIGNED_CONTEXT ( ( #66 ) ) GLOBAL_UNIT_ASSIGNED_CONTEXT ( ( #186, #74, #205 ) ) REPRESENTATION_CONTEXT ( 'NONE', 'WORKASPACE' ) );
#36 = EDGE_LOOP ( 'NONE', ( #44, #120 ) ) ;
#37 = APPLICATION_CONTEXT ( 'automotive_design' ) ;
#38 = PRODUCT_DEFINITION_SHAPE ( 'NONE', 'NONE',  #241 ) ;
#39 = UNCERTAINTY_MEASURE_WITH_UNIT (LENGTH_MEASURE( 1.000000000000000100E-005 ), #149, 'distance_accuracy_value', 'NONE');
#40 = PRODUCT_RELATED_PRODUCT_CATEGORY ( 'part', '', ( #199 ) ) ;
#41 = DIRECTION ( 'NONE',  ( 0.0000000000000000000, 0.0000000000000000000, 1.000000000000000000 ) ) ;
#42 = CARTESIAN_POINT ( 'NONE',  ( 50.00000000000000000, 0.0000000000000000000, 0.0000000000000000000 ) ) ;
#43 = AXIS2_PLACEMENT_3D ( 'NONE', #42, #4, #140 ) ;
#44 = ORIENTED_EDGE ( 'NONE', *, *, #224, .T. ) ;
#45 = AXIS2_PLACEMENT_3D ( 'NONE', #188, #75, #206 ) ;
#46 = EDGE_CURVE ( 'NONE', #10, #106, #112, .T. ) ;
#47 = CARTESIAN_POINT ( 'NONE',  ( 50.00000000000000000, 0.0000000000000000000, 0.0000000000000000000 ) ) ;
#48 = DIRECTION ( 'NONE',  ( 0.0000000000000000000, 0.0000000000000000000, -1.000000000000000000 ) ) ;
#49 = SURFACE_STYLE_USAGE ( .BOTH. , #168 ) ;
#50 = SURFACE_STYLE_FILL_AREA ( #230 ) ;
#51 = DIRECTION ( 'NONE',  ( 0.0000000000000000000, 0.0000000000000000000, 1.000000000000000000 ) ) ;
#52 = ORIENTED_EDGE ( 'NONE', *, *, #136, .F. ) ;
#53 = APPLICATION_CONTEXT ( 'automotive_design' ) ;
#54 = PRODUCT_DEFINITION_SHAPE ( 'NONE', 'NONE',  #214 ) ;
#55 = DIRECTION ( 'NONE',  ( 1.000000000000000000, 0.0000000000000000000, 0.0000000000000000000 ) ) ;
#56 = AXIS2_PLACEMENT_3D ( 'NONE', #193, #139, #211 ) ;
#57 = CYLINDRICAL_SURFACE ( 'NONE', #245, 3.750000000000000000 ) ;
#58 =( GEOMETRIC_REPRESENTATION_CONTEXT ( 3 ) GLOBAL_UNCERTAINTY_ASSIGNED_CONTEXT ( ( #39 ) ) GLOBAL_UNIT_ASSIGNED_CONTEXT ( ( #149, #34, #170 ) ) REPRESENTATION_CONTEXT ( 'NONE', 'WORKASPACE' ) );
#59 = EDGE_LOOP ( 'NONE', ( #201, #141, #249, #52 ) ) ;
#60 = LINE ( 'NONE', #22, #118 ) ;
#61 = CARTESIAN_POINT ( 'NONE',  ( -50.00000000000000000, 0.0000000000000000000, 3.750000000000000000 ) ) ;
#62 = LINE ( 'NONE', #218, #198 ) ;
#63 = SHAPE_REPRESENTATION_RELATIONSHIP ( 'NONE' , 'NONE' ,  #165, #115 ) ;
#64 = VERTEX_POINT ( 'NONE', #27 ) ;
#65 = FACE_OUTER_BOUND ( 'NONE', #150, .T. ) ;
#66 = UNCERTAINTY_MEASURE_WITH_UNIT (LENGTH_MEASURE( 1.000000000000000100E-005 ), #186, 'distance_accuracy_value', 'NONE');
#67 = EDGE_CURVE ( 'NONE', #10, #123, #181, .T. ) ;
#68 = ADVANCED_FACE ( 'NONE', ( #65 ), #176, .F. ) ;
#69 = VERTEX_POINT ( 'NONE', #61 ) ;
#70 = APPLICATION_CONTEXT ( 'automotive_design' ) ;
#71 = FACE_OUTER_BOUND ( 'NONE', #242, .T. ) ;
#72 = DIRECTION ( 'NONE',  ( -1.000000000000000000, -0.0000000000000000000, -0.0000000000000000000 ) ) ;
#73 = AXIS2_PLACEMENT_3D ( 'NONE', #128, #220, #92 ) ;
#74 =( NAMED_UNIT ( * ) PLANE_ANGLE_UNIT ( ) SI_UNIT ( $, .RADIAN. ) );
#75 = DIRECTION ( 'NONE',  ( 0.0000000000000000000, 0.0000000000000000000, 1.000000000000000000 ) ) ;
#76 = AXIS2_PLACEMENT_3D ( 'NONE', #228, #72, #110 ) ;
#77 = CARTESIAN_POINT ( 'NONE',  ( 0.0000000000000000000, 0.0000000000000000000, 0.0000000000000000000 ) ) ;
#78 = SHAPE_DEFINITION_REPRESENTATION ( #38, #84 ) ;
#79 = PRODUCT_CONTEXT ( 'NONE', #53, 'mechanical' ) ;
#80 = FACE_BOUND ( 'NONE', #95, .T. ) ;
#81 = DIRECTION ( 'NONE',  ( 0.0000000000000000000, 0.0000000000000000000, -1.000000000000000000 ) ) ;
#82 = ORIENTED_EDGE ( 'NONE', *, *, #213, .F. ) ;
#83 = DIRECTION ( 'NONE',  ( 0.0000000000000000000, 0.0000000000000000000, -1.000000000000000000 ) ) ;
#84 = SHAPE_REPRESENTATION ( 'TS1075W-20.step', ( #203, #179 ), #191 ) ;
#85 = ORIENTED_EDGE ( 'NONE', *, *, #67, .F. ) ;
#86 = COLOUR_RGB ( '',1.000000000000000000, 1.000000000000000000, 1.000000000000000000 ) ;
#87 = CARTESIAN_POINT ( 'NONE',  ( -50.00000000000000000, 6.123233995736766300E-016, -5.000000000000000000 ) ) ;
#88 = CARTESIAN_POINT ( 'NONE',  ( 50.00000000000000000, 6.123233995736766300E-016, -5.000000000000000000 ) ) ;
#89 = CARTESIAN_POINT ( 'NONE',  ( -50.00000000000000000, 0.0000000000000000000, 0.0000000000000000000 ) ) ;
#90 = AXIS2_PLACEMENT_3D ( 'NONE', #159, #158, #41 ) ;
#91 = STYLED_ITEM ( 'NONE', ( #250 ), #115 ) ;
#92 = DIRECTION ( 'NONE',  ( 0.0000000000000000000, 0.0000000000000000000, -1.000000000000000000 ) ) ;
#93 = DIRECTION ( 'NONE',  ( 1.000000000000000000, 0.0000000000000000000, 0.0000000000000000000 ) ) ;
#94 = EDGE_LOOP ( 'NONE', ( #177, #215 ) ) ;
#95 = EDGE_LOOP ( 'NONE', ( #162, #82 ) ) ;
#96 = FILL_AREA_STYLE_COLOUR ( '', #8 ) ;
#97 = FILL_AREA_STYLE_COLOUR ( '', #86 ) ;
#98 = DIRECTION ( 'NONE',  ( 1.000000000000000000, 0.0000000000000000000, 0.0000000000000000000 ) ) ;
#99 = APPLICATION_PROTOCOL_DEFINITION ( 'draft international standard', 'automotive_design', 1998, #208 ) ;
#100 = FACE_OUTER_BOUND ( 'NONE', #235, .T. ) ;
#101 = AXIS2_PLACEMENT_3D ( 'NONE', #236, #55, #83 ) ;
#102 = PRESENTATION_LAYER_ASSIGNMENT (  '', '', ( #91 ) ) ;
#103 = EDGE_LOOP ( 'NONE', ( #121, #194 ) ) ;
#104 = CARTESIAN_POINT ( 'NONE',  ( -50.00000000000000000, 0.0000000000000000000, 0.0000000000000000000 ) ) ;
#105 = CARTESIAN_POINT ( 'NONE',  ( 50.00000000000000000, 0.0000000000000000000, 5.000000000000000000 ) ) ;
#106 = VERTEX_POINT ( 'NONE', #105 ) ;
#107 = DIRECTION ( 'NONE',  ( 0.0000000000000000000, 0.0000000000000000000, -1.000000000000000000 ) ) ;
#108 = CIRCLE ( 'NONE', #237, 5.000000000000000000 ) ;
#109 = AXIS2_PLACEMENT_3D ( 'NONE', #47, #240, #202 ) ;
#110 = DIRECTION ( 'NONE',  ( 0.0000000000000000000, 0.0000000000000000000, 1.000000000000000000 ) ) ;
#111 = SURFACE_SIDE_STYLE ('',( #50 ) ) ;
#112 = CIRCLE ( 'NONE', #43, 5.000000000000000000 ) ;
#113 = MECHANICAL_DESIGN_GEOMETRIC_PRESENTATION_REPRESENTATION (  '', ( #91 ), #127 ) ;
#114 =( NAMED_UNIT ( * ) PLANE_ANGLE_UNIT ( ) SI_UNIT ( $, .RADIAN. ) );
#115 = ADVANCED_BREP_SHAPE_REPRESENTATION ( '', ( #229, #45 ), #58 ) ;
#116 = PRODUCT_DEFINITION_CONTEXT ( 'detailed design', #70, 'design' ) ;
#117 = PRODUCT_CONTEXT ( 'NONE', #37, 'mechanical' ) ;
#118 = VECTOR ( 'NONE', #210, 1000.000000000000000 ) ;
#119 = CIRCLE ( 'NONE', #161, 5.000000000000000000 ) ;
#120 = ORIENTED_EDGE ( 'NONE', *, *, #46, .T. ) ;
#121 = ORIENTED_EDGE ( 'NONE', *, *, #209, .F. ) ;
#122 = DIRECTION ( 'NONE',  ( -1.000000000000000000, -0.0000000000000000000, -0.0000000000000000000 ) ) ;
#123 = VERTEX_POINT ( 'NONE', #87 ) ;
#124 = CARTESIAN_POINT ( 'NONE',  ( 50.00000000000000000, 6.123233995736766300E-016, -5.000000000000000000 ) ) ;
#125 = VECTOR ( 'NONE', #122, 1000.000000000000000 ) ;
#126 = CARTESIAN_POINT ( 'NONE',  ( 50.00000000000000000, 0.0000000000000000000, 5.000000000000000000 ) ) ;
#127 =( GEOMETRIC_REPRESENTATION_CONTEXT ( 3 ) GLOBAL_UNCERTAINTY_ASSIGNED_CONTEXT ( ( #143 ) ) GLOBAL_UNIT_ASSIGNED_CONTEXT ( ( #133, #14, #151 ) ) REPRESENTATION_CONTEXT ( 'NONE', 'WORKASPACE' ) );
#128 = CARTESIAN_POINT ( 'NONE',  ( 50.00000000000000000, 0.0000000000000000000, 0.0000000000000000000 ) ) ;
#129 = VECTOR ( 'NONE', #196, 1000.000000000000000 ) ;
#130 = CARTESIAN_POINT ( 'NONE',  ( -50.00000000000000000, 0.0000000000000000000, 0.0000000000000000000 ) ) ;
#131 = CARTESIAN_POINT ( 'NONE',  ( 50.00000000000000000, 0.0000000000000000000, 0.0000000000000000000 ) ) ;
#132 = CARTESIAN_POINT ( 'NONE',  ( 50.00000000000000000, 0.0000000000000000000, 0.0000000000000000000 ) ) ;
#133 =( LENGTH_UNIT ( ) NAMED_UNIT ( * ) SI_UNIT ( .MILLI., .METRE. ) );
#134 = DIRECTION ( 'NONE',  ( 1.000000000000000000, 0.0000000000000000000, 0.0000000000000000000 ) ) ;
#135 = EDGE_CURVE ( 'NONE', #64, #200, #234, .T. ) ;
#136 = EDGE_CURVE ( 'NONE', #106, #26, #225, .T. ) ;
#137 = APPLICATION_PROTOCOL_DEFINITION ( 'draft international standard', 'automotive_design', 1998, #70 ) ;
#138 = ORIENTED_EDGE ( 'NONE', *, *, #209, .T. ) ;
#139 = DIRECTION ( 'NONE',  ( 1.000000000000000000, 0.0000000000000000000, 0.0000000000000000000 ) ) ;
#140 = DIRECTION ( 'NONE',  ( 0.0000000000000000000, 0.0000000000000000000, -1.000000000000000000 ) ) ;
#141 = ORIENTED_EDGE ( 'NONE', *, *, #67, .T. ) ;
#142 = CYLINDRICAL_SURFACE ( 'NONE', #76, 5.000000000000000000 ) ;
#143 = UNCERTAINTY_MEASURE_WITH_UNIT (LENGTH_MEASURE( 1.000000000000000100E-005 ), #133, 'distance_accuracy_value', 'NONE');
#144 = ADVANCED_FACE ( 'NONE', ( #71 ), #166, .T. ) ;
#145 = PRODUCT_DEFINITION_CONTEXT ( 'detailed design', #208, 'design' ) ;
#146 = DIRECTION ( 'NONE',  ( 0.0000000000000000000, 0.0000000000000000000, 1.000000000000000000 ) ) ;
#147 = DIRECTION ( 'NONE',  ( 0.0000000000000000000, 0.0000000000000000000, -1.000000000000000000 ) ) ;
#148 = AXIS2_PLACEMENT_3D ( 'NONE', #17, #134, #81 ) ;
#149 =( LENGTH_UNIT ( ) NAMED_UNIT ( * ) SI_UNIT ( .MILLI., .METRE. ) );
#150 = EDGE_LOOP ( 'NONE', ( #153, #195, #169, #1 ) ) ;
#151 =( NAMED_UNIT ( * ) SI_UNIT ( $, .STERADIAN. ) SOLID_ANGLE_UNIT ( ) );
#152 = DIRECTION ( 'NONE',  ( 1.000000000000000000, 0.0000000000000000000, 0.0000000000000000000 ) ) ;
#153 = ORIENTED_EDGE ( 'NONE', *, *, #7, .F. ) ;
#154 = PRESENTATION_STYLE_ASSIGNMENT (( #49 ) ) ;
#155 = ORIENTED_EDGE ( 'NONE', *, *, #157, .F. ) ;
#156 = EDGE_CURVE ( 'NONE', #123, #26, #21, .T. ) ;
#157 = EDGE_CURVE ( 'NONE', #69, #226, #217, .T. ) ;
#158 = DIRECTION ( 'NONE',  ( -1.000000000000000000, -0.0000000000000000000, -0.0000000000000000000 ) ) ;
#159 = CARTESIAN_POINT ( 'NONE',  ( 50.00000000000000000, 0.0000000000000000000, 0.0000000000000000000 ) ) ;
#160 = FACE_OUTER_BOUND ( 'NONE', #103, .T. ) ;
#161 = AXIS2_PLACEMENT_3D ( 'NONE', #130, #93, #107 ) ;
#162 = ORIENTED_EDGE ( 'NONE', *, *, #135, .F. ) ;
#163 = AXIS2_PLACEMENT_3D ( 'NONE', #171, #51, #189 ) ;
#164 = ADVANCED_FACE ( 'NONE', ( #25, #80 ), #30, .T. ) ;
#165 = SHAPE_REPRESENTATION ( 'TS1075W-20.step_TS3075 Tube_1075W', ( #45 ), #58 ) ;
#166 = CYLINDRICAL_SURFACE ( 'NONE', #109, 5.000000000000000000 ) ;
#167 = DIRECTION ( 'NONE',  ( 1.000000000000000000, 0.0000000000000000000, 0.0000000000000000000 ) ) ;
#168 = SURFACE_SIDE_STYLE ('',( #204 ) ) ;
#169 = ORIENTED_EDGE ( 'NONE', *, *, #174, .T. ) ;
#170 =( NAMED_UNIT ( * ) SI_UNIT ( $, .STERADIAN. ) SOLID_ANGLE_UNIT ( ) );
#171 = CARTESIAN_POINT ( 'NONE',  ( 0.0000000000000000000, 0.0000000000000000000, 0.0000000000000000000 ) ) ;
#172 = ORIENTED_EDGE ( 'NONE', *, *, #135, .T. ) ;
#173 = ITEM_DEFINED_TRANSFORMATION ( 'NONE', 'NONE', #179,  #45 ) ;
#174 = EDGE_CURVE ( 'NONE', #64, #69, #60, .T. ) ;
#175 = ORIENTED_EDGE ( 'NONE', *, *, #7, .T. ) ;
#176 = CYLINDRICAL_SURFACE ( 'NONE', #90, 3.750000000000000000 ) ;
#177 = ORIENTED_EDGE ( 'NONE', *, *, #157, .T. ) ;
#178 = AXIS2_PLACEMENT_3D ( 'NONE', #89, #219, #6 ) ;
#179 = AXIS2_PLACEMENT_3D ( 'NONE', #77, #207, #98 ) ;
#180 = ADVANCED_FACE ( 'NONE', ( #160, #11 ), #182, .F. ) ;
#181 = LINE ( 'NONE', #88, #129 ) ;
#182 = PLANE ( 'NONE',  #178 ) ;
#183 = CARTESIAN_POINT ( 'NONE',  ( -50.00000000000000000, 0.0000000000000000000, 5.000000000000000000 ) ) ;
#184 = PRODUCT ( 'TS1075W-20.step', 'TS1075W-20.step', '', ( #79 ) ) ;
#185 = ORIENTED_EDGE ( 'NONE', *, *, #174, .F. ) ;
#186 =( LENGTH_UNIT ( ) NAMED_UNIT ( * ) SI_UNIT ( .MILLI., .METRE. ) );
#187 = AXIS2_PLACEMENT_3D ( 'NONE', #31, #167, #48 ) ;
#188 = CARTESIAN_POINT ( 'NONE',  ( 0.0000000000000000000, 0.0000000000000000000, 0.0000000000000000000 ) ) ;
#189 = DIRECTION ( 'NONE',  ( 1.000000000000000000, 0.0000000000000000000, 0.0000000000000000000 ) ) ;
#190 = UNCERTAINTY_MEASURE_WITH_UNIT (LENGTH_MEASURE( 1.000000000000000100E-005 ), #231, 'distance_accuracy_value', 'NONE');
#191 =( GEOMETRIC_REPRESENTATION_CONTEXT ( 3 ) GLOBAL_UNCERTAINTY_ASSIGNED_CONTEXT ( ( #190 ) ) GLOBAL_UNIT_ASSIGNED_CONTEXT ( ( #231, #114, #248 ) ) REPRESENTATION_CONTEXT ( 'NONE', 'WORKASPACE' ) );
#192 = APPLICATION_PROTOCOL_DEFINITION ( 'draft international standard', 'automotive_design', 1998, #53 ) ;
#193 = CARTESIAN_POINT ( 'NONE',  ( -50.00000000000000000, 0.0000000000000000000, 0.0000000000000000000 ) ) ;
#194 = ORIENTED_EDGE ( 'NONE', *, *, #156, .F. ) ;
#195 = ORIENTED_EDGE ( 'NONE', *, *, #213, .T. ) ;
#196 = DIRECTION ( 'NONE',  ( -1.000000000000000000, -0.0000000000000000000, -0.0000000000000000000 ) ) ;
#197 = DIRECTION ( 'NONE',  ( -1.000000000000000000, -0.0000000000000000000, -0.0000000000000000000 ) ) ;
#198 = VECTOR ( 'NONE', #197, 1000.000000000000000 ) ;
#199 = PRODUCT ( 'TS1075W-20.step_TS3075 Tube_1075W', 'TS1075W-20.step_TS3075 Tube_1075W', '', ( #117 ) ) ;
#200 = VERTEX_POINT ( 'NONE', #238 ) ;
#201 = ORIENTED_EDGE ( 'NONE', *, *, #46, .F. ) ;
#202 = DIRECTION ( 'NONE',  ( 0.0000000000000000000, 0.0000000000000000000, 1.000000000000000000 ) ) ;
#203 = AXIS2_PLACEMENT_3D ( 'NONE', #244, #16, #152 ) ;
#204 = SURFACE_STYLE_FILL_AREA ( #33 ) ;
#205 =( NAMED_UNIT ( * ) SI_UNIT ( $, .STERADIAN. ) SOLID_ANGLE_UNIT ( ) );
#206 = DIRECTION ( 'NONE',  ( 1.000000000000000000, 0.0000000000000000000, 0.0000000000000000000 ) ) ;
#207 = DIRECTION ( 'NONE',  ( 0.0000000000000000000, 0.0000000000000000000, 1.000000000000000000 ) ) ;
#208 = APPLICATION_CONTEXT ( 'automotive_design' ) ;
#209 = EDGE_CURVE ( 'NONE', #26, #123, #119, .T. ) ;
#210 = DIRECTION ( 'NONE',  ( -1.000000000000000000, -0.0000000000000000000, -0.0000000000000000000 ) ) ;
#211 = DIRECTION ( 'NONE',  ( 0.0000000000000000000, 0.0000000000000000000, -1.000000000000000000 ) ) ;
#212 = FACE_OUTER_BOUND ( 'NONE', #59, .T. ) ;
#213 = EDGE_CURVE ( 'NONE', #200, #64, #12, .T. ) ;
#214 = PRODUCT_DEFINITION ( 'UNKNOWN', '', #28, #116 ) ;
#215 = ORIENTED_EDGE ( 'NONE', *, *, #23, .T. ) ;
#216 = DIRECTION ( 'NONE',  ( 0.0000000000000000000, 0.0000000000000000000, -1.000000000000000000 ) ) ;
#217 = CIRCLE ( 'NONE', #56, 3.750000000000000000 ) ;
#218 = CARTESIAN_POINT ( 'NONE',  ( 50.00000000000000000, 4.592425496802574000E-016, -3.750000000000000000 ) ) ;
#219 = DIRECTION ( 'NONE',  ( 1.000000000000000000, 0.0000000000000000000, 0.0000000000000000000 ) ) ;
#220 = DIRECTION ( 'NONE',  ( 1.000000000000000000, 0.0000000000000000000, 0.0000000000000000000 ) ) ;
#221 = STYLED_ITEM ( 'NONE', ( #154 ), #229 ) ;
#222 = SHAPE_DEFINITION_REPRESENTATION ( #54, #165 ) ;
#223 = ADVANCED_FACE ( 'NONE', ( #100 ), #57, .F. ) ;
#224 = EDGE_CURVE ( 'NONE', #106, #10, #108, .T. ) ;
#225 = LINE ( 'NONE', #126, #125 ) ;
#226 = VERTEX_POINT ( 'NONE', #227 ) ;
#227 = CARTESIAN_POINT ( 'NONE',  ( -50.00000000000000000, 4.592425496802574000E-016, -3.750000000000000000 ) ) ;
#228 = CARTESIAN_POINT ( 'NONE',  ( 50.00000000000000000, 0.0000000000000000000, 0.0000000000000000000 ) ) ;
#229 = MANIFOLD_SOLID_BREP ( 'Tube', #29 ) ;
#230 = FILL_AREA_STYLE ('',( #97 ) ) ;
#231 =( LENGTH_UNIT ( ) NAMED_UNIT ( * ) SI_UNIT ( .MILLI., .METRE. ) );
#232 = CIRCLE ( 'NONE', #32, 3.750000000000000000 ) ;
#233 = APPLICATION_PROTOCOL_DEFINITION ( 'draft international standard', 'automotive_design', 1998, #37 ) ;
#234 = CIRCLE ( 'NONE', #73, 3.750000000000000000 ) ;
#235 = EDGE_LOOP ( 'NONE', ( #172, #175, #155, #185 ) ) ;
#236 = CARTESIAN_POINT ( 'NONE',  ( -50.00000000000000000, 0.0000000000000000000, 0.0000000000000000000 ) ) ;
#237 = AXIS2_PLACEMENT_3D ( 'NONE', #132, #13, #147 ) ;
#238 = CARTESIAN_POINT ( 'NONE',  ( 50.00000000000000000, 4.592425496802574000E-016, -3.750000000000000000 ) ) ;
#239 = ADVANCED_FACE ( 'NONE', ( #212 ), #142, .T. ) ;
#240 = DIRECTION ( 'NONE',  ( -1.000000000000000000, -0.0000000000000000000, -0.0000000000000000000 ) ) ;
#241 = PRODUCT_DEFINITION ( 'UNKNOWN', '', #3, #145 ) ;
#242 = EDGE_LOOP ( 'NONE', ( #85, #15, #247, #138 ) ) ;
#243 = DIRECTION ( 'NONE',  ( -1.000000000000000000, -0.0000000000000000000, -0.0000000000000000000 ) ) ;
#244 = CARTESIAN_POINT ( 'NONE',  ( 0.0000000000000000000, 0.0000000000000000000, 0.0000000000000000000 ) ) ;
#245 = AXIS2_PLACEMENT_3D ( 'NONE', #131, #243, #146 ) ;
#246 = SURFACE_STYLE_USAGE ( .BOTH. , #111 ) ;
#247 = ORIENTED_EDGE ( 'NONE', *, *, #136, .T. ) ;
#248 =( NAMED_UNIT ( * ) SI_UNIT ( $, .STERADIAN. ) SOLID_ANGLE_UNIT ( ) );
#249 = ORIENTED_EDGE ( 'NONE', *, *, #156, .T. ) ;
#250 = PRESENTATION_STYLE_ASSIGNMENT (( #246 ) ) ;
#251 = NEXT_ASSEMBLY_USAGE_OCCURRENCE ( 'NAUO1', ' ', ' ', #241, #214, $ ) ;
ENDSEC;
END-ISO-10303-21;
