ISO-10303-21;
HEADER;
FILE_DESCRIPTION (( 'STEP AP214' ),
    '1' );
FILE_NAME ('TU0425R-20.step.step',
    '2013-04-12T10:39:40',
    ( 'Windows User' ),
    ( '' ),
    'SwSTEP 2.0',
    'SolidWorks 2013',
    '' );
FILE_SCHEMA (( 'AUTOMOTIVE_DESIGN' ));
ENDSEC;

DATA;
#1 = DIRECTION ( 'NONE',  ( 0.0000000000000000000, 0.0000000000000000000, -1.000000000000000000 ) ) ;
#2 = CARTESIAN_POINT ( 'NONE',  ( 100.0000000000000000, 0.0000000000000000000, 0.0000000000000000000 ) ) ;
#3 =( LENGTH_UNIT ( ) NAMED_UNIT ( * ) SI_UNIT ( .MILLI., .METRE. ) );
#4 =( NAMED_UNIT ( * ) SI_UNIT ( $, .STERADIAN. ) SOLID_ANGLE_UNIT ( ) );
#5 =( NAMED_UNIT ( * ) PLANE_ANGLE_UNIT ( ) SI_UNIT ( $, .RADIAN. ) );
#6 = AXIS2_PLACEMENT_3D ( 'NONE', #136, #137, #112 ) ;
#7 = PRESENTATION_STYLE_ASSIGNMENT (( #338 ) ) ;
#8 = PRODUCT_DEFINITION_SHAPE ( 'NONE', 'NONE',  #201 ) ;
#9 = ADVANCED_FACE ( 'NONE', ( #157, #245 ), #263, .T. ) ;
#10 = AXIS2_PLACEMENT_3D ( 'NONE', #319, #315, #266 ) ;
#11 = CARTESIAN_POINT ( 'NONE',  ( 105.6568542494924000, 2.449293598294705900E-016, -2.000000000000000000 ) ) ;
#12 = UNCERTAINTY_MEASURE_WITH_UNIT (LENGTH_MEASURE( 1.000000000000000100E-005 ), #17, 'distance_accuracy_value', 'NONE');
#13 = ADVANCED_FACE ( 'NONE', ( #258, #235 ), #154, .F. ) ;
#14 = UNCERTAINTY_MEASURE_WITH_UNIT (LENGTH_MEASURE( 1.000000000000000100E-005 ), #44, 'distance_accuracy_value', 'NONE');
#15 = EDGE_CURVE ( 'NONE', #257, #166, #181, .T. ) ;
#16 = DIRECTION ( 'NONE',  ( 1.000000000000000000, 0.0000000000000000000, 0.0000000000000000000 ) ) ;
#17 =( LENGTH_UNIT ( ) NAMED_UNIT ( * ) SI_UNIT ( .MILLI., .METRE. ) );
#18 = CARTESIAN_POINT ( 'NONE',  ( 0.0000000000000000000, 1.530808498934191600E-016, -1.250000000000000200 ) ) ;
#19 = SHAPE_REPRESENTATION ( 'TU0425R-20.step_TU3076 Tube_0425R', ( #233 ), #229 ) ;
#20 = SURFACE_SIDE_STYLE ('',( #142 ) ) ;
#21 = FILL_AREA_STYLE ('',( #77 ) ) ;
#22 = SHAPE_DEFINITION_REPRESENTATION ( #73, #19 ) ;
#23 = SURFACE_STYLE_USAGE ( .BOTH. , #20 ) ;
#24 = CARTESIAN_POINT ( 'NONE',  ( 0.0000000000000000000, 0.0000000000000000000, 0.0000000000000000000 ) ) ;
#25 = FILL_AREA_STYLE ('',( #234 ) ) ;
#26 = CARTESIAN_POINT ( 'NONE',  ( 0.0000000000000000000, 0.0000000000000000000, 0.0000000000000000000 ) ) ;
#27 = CARTESIAN_POINT ( 'NONE',  ( 100.0000000000000000, 1.530808498934191600E-016, -1.250000000000000200 ) ) ;
#28 = FILL_AREA_STYLE ('',( #118 ) ) ;
#29 = CARTESIAN_POINT ( 'NONE',  ( 100.0000000000000000, 0.0000000000000000000, 1.250000000000000200 ) ) ;
#30 = DIRECTION ( 'NONE',  ( 1.000000000000000000, 0.0000000000000000000, 0.0000000000000000000 ) ) ;
#31 = DIRECTION ( 'NONE',  ( 0.0000000000000000000, 0.0000000000000000000, 1.000000000000000000 ) ) ;
#32 = CARTESIAN_POINT ( 'NONE',  ( 0.0000000000000000000, 2.449293598294705900E-016, -2.000000000000000000 ) ) ;
#33 = FILL_AREA_STYLE_COLOUR ( '', #52 ) ;
#34 = APPLICATION_CONTEXT ( 'automotive_design' ) ;
#35 = EDGE_CURVE ( 'NONE', #251, #212, #239, .T. ) ;
#36 = DIRECTION ( 'NONE',  ( 1.000000000000000000, 0.0000000000000000000, 0.0000000000000000000 ) ) ;
#37 = AXIS2_PLACEMENT_3D ( 'NONE', #223, #36, #48 ) ;
#38 =( LENGTH_UNIT ( ) NAMED_UNIT ( * ) SI_UNIT ( .MILLI., .METRE. ) );
#39 =( NAMED_UNIT ( * ) PLANE_ANGLE_UNIT ( ) SI_UNIT ( $, .RADIAN. ) );
#40 =( LENGTH_UNIT ( ) NAMED_UNIT ( * ) SI_UNIT ( .MILLI., .METRE. ) );
#41 = DIRECTION ( 'NONE',  ( 0.0000000000000000000, 0.0000000000000000000, 1.000000000000000000 ) ) ;
#42 = DIRECTION ( 'NONE',  ( 1.000000000000000000, 0.0000000000000000000, 0.0000000000000000000 ) ) ;
#43 = CARTESIAN_POINT ( 'NONE',  ( 0.0000000000000000000, 0.0000000000000000000, 0.0000000000000000000 ) ) ;
#44 =( LENGTH_UNIT ( ) NAMED_UNIT ( * ) SI_UNIT ( .MILLI., .METRE. ) );
#45 =( NAMED_UNIT ( * ) PLANE_ANGLE_UNIT ( ) SI_UNIT ( $, .RADIAN. ) );
#46 = AXIS2_PLACEMENT_3D ( 'NONE', #147, #120, #228 ) ;
#47 = CARTESIAN_POINT ( 'NONE',  ( 0.0000000000000000000, 0.0000000000000000000, 0.0000000000000000000 ) ) ;
#48 = DIRECTION ( 'NONE',  ( 0.0000000000000000000, 0.0000000000000000000, -1.000000000000000000 ) ) ;
#49 =( GEOMETRIC_REPRESENTATION_CONTEXT ( 3 ) GLOBAL_UNCERTAINTY_ASSIGNED_CONTEXT ( ( #115 ) ) GLOBAL_UNIT_ASSIGNED_CONTEXT ( ( #161, #109, #216 ) ) REPRESENTATION_CONTEXT ( 'NONE', 'WORKASPACE' ) );
#50 = MECHANICAL_DESIGN_GEOMETRIC_PRESENTATION_REPRESENTATION (  '', ( #59 ), #49 ) ;
#51 = SURFACE_STYLE_FILL_AREA ( #176 ) ;
#52 = COLOUR_RGB ( '',1.000000000000000000, 0.1254901960784313700, 0.1607843137254901800 ) ;
#53 = PRESENTATION_LAYER_ASSIGNMENT (  '', '', ( #59 ) ) ;
#54 = UNCERTAINTY_MEASURE_WITH_UNIT (LENGTH_MEASURE( 1.000000000000000100E-005 ), #182, 'distance_accuracy_value', 'NONE');
#55 = CARTESIAN_POINT ( 'NONE',  ( 0.0000000000000000000, 0.0000000000000000000, 0.0000000000000000000 ) ) ;
#56 = APPLICATION_PROTOCOL_DEFINITION ( 'draft international standard', 'automotive_design', 1998, #80 ) ;
#57 = AXIS2_PLACEMENT_3D ( 'NONE', #162, #156, #113 ) ;
#58 =( NAMED_UNIT ( * ) SI_UNIT ( $, .STERADIAN. ) SOLID_ANGLE_UNIT ( ) );
#59 = STYLED_ITEM ( 'NONE', ( #7 ), #13 ) ;
#60 = SURFACE_SIDE_STYLE ('',( #213 ) ) ;
#61 = APPLICATION_PROTOCOL_DEFINITION ( 'draft international standard', 'automotive_design', 1998, #34 ) ;
#62 = PRODUCT_CONTEXT ( 'NONE', #34, 'mechanical' ) ;
#63 =( GEOMETRIC_REPRESENTATION_CONTEXT ( 3 ) GLOBAL_UNCERTAINTY_ASSIGNED_CONTEXT ( ( #114 ) ) GLOBAL_UNIT_ASSIGNED_CONTEXT ( ( #150, #153, #278 ) ) REPRESENTATION_CONTEXT ( 'NONE', 'WORKASPACE' ) );
#64 = DIRECTION ( 'NONE',  ( -1.000000000000000000, -0.0000000000000000000, -0.0000000000000000000 ) ) ;
#65 = APPLICATION_CONTEXT ( 'automotive_design' ) ;
#66 = MECHANICAL_DESIGN_GEOMETRIC_PRESENTATION_REPRESENTATION (  '', ( #84 ), #63 ) ;
#67 = SURFACE_SIDE_STYLE ('',( #298 ) ) ;
#68 = PRESENTATION_LAYER_ASSIGNMENT (  '', '', ( #84 ) ) ;
#69 = CARTESIAN_POINT ( 'NONE',  ( 105.6568542494924000, 0.0000000000000000000, 0.0000000000000000000 ) ) ;
#70 = STYLED_ITEM ( 'NONE', ( #337 ), #128 ) ;
#71 =( NAMED_UNIT ( * ) SI_UNIT ( $, .STERADIAN. ) SOLID_ANGLE_UNIT ( ) );
#72 = UNCERTAINTY_MEASURE_WITH_UNIT (LENGTH_MEASURE( 1.000000000000000100E-005 ), #123, 'distance_accuracy_value', 'NONE');
#73 = PRODUCT_DEFINITION_SHAPE ( 'NONE', 'NONE',  #203 ) ;
#74 = DIRECTION ( 'NONE',  ( 0.0000000000000000000, 0.0000000000000000000, 1.000000000000000000 ) ) ;
#75 = EDGE_CURVE ( 'NONE', #251, #271, #291, .T. ) ;
#76 = EDGE_CURVE ( 'NONE', #284, #212, #273, .T. ) ;
#77 = FILL_AREA_STYLE_COLOUR ( '', #214 ) ;
#78 = DIRECTION ( 'NONE',  ( 1.000000000000000000, 0.0000000000000000000, 0.0000000000000000000 ) ) ;
#79 = CARTESIAN_POINT ( 'NONE',  ( 100.0000000000000000, 0.0000000000000000000, 2.000000000000000000 ) ) ;
#80 = APPLICATION_CONTEXT ( 'automotive_design' ) ;
#81 = EDGE_CURVE ( 'NONE', #271, #251, #274, .T. ) ;
#82 =( REPRESENTATION_RELATIONSHIP ('NONE','NONE', #202, #19 ) REPRESENTATION_RELATIONSHIP_WITH_TRANSFORMATION ( #135 )SHAPE_REPRESENTATION_RELATIONSHIP( ) );
#83 = PRODUCT_CONTEXT ( 'NONE', #65, 'mechanical' ) ;
#84 = STYLED_ITEM ( 'NONE', ( #295 ), #9 ) ;
#85 = SURFACE_STYLE_USAGE ( .BOTH. , #124 ) ;
#86 = APPLICATION_PROTOCOL_DEFINITION ( 'draft international standard', 'automotive_design', 1998, #65 ) ;
#87 = ORIENTED_EDGE ( 'NONE', *, *, #75, .F. ) ;
#88 = EDGE_CURVE ( 'NONE', #212, #284, #171, .T. ) ;
#89 = EDGE_CURVE ( 'NONE', #166, #257, #241, .T. ) ;
#90 = SHAPE_REPRESENTATION_RELATIONSHIP ( 'NONE' , 'NONE' ,  #19, #132 ) ;
#91 = CYLINDRICAL_SURFACE ( 'NONE', #246, 2.000000000000000000 ) ;
#92 = CYLINDRICAL_SURFACE ( 'NONE', #224, 2.000000000000000000 ) ;
#93 = SURFACE_STYLE_USAGE ( .BOTH. , #178 ) ;
#94 = EDGE_CURVE ( 'NONE', #279, #280, #262, .T. ) ;
#95 = EDGE_CURVE ( 'NONE', #279, #257, #180, .T. ) ;
#96 = PRESENTATION_STYLE_ASSIGNMENT (( #93 ) ) ;
#97 =( NAMED_UNIT ( * ) PLANE_ANGLE_UNIT ( ) SI_UNIT ( $, .RADIAN. ) );
#98 = DIRECTION ( 'NONE',  ( 0.0000000000000000000, 0.0000000000000000000, 1.000000000000000000 ) ) ;
#99 = SURFACE_STYLE_USAGE ( .BOTH. , #110 ) ;
#100 =( NAMED_UNIT ( * ) SI_UNIT ( $, .STERADIAN. ) SOLID_ANGLE_UNIT ( ) );
#101 = FACE_OUTER_BOUND ( 'NONE', #302, .T. ) ;
#102 =( NAMED_UNIT ( * ) SI_UNIT ( $, .STERADIAN. ) SOLID_ANGLE_UNIT ( ) );
#103 = FILL_AREA_STYLE_COLOUR ( '', #226 ) ;
#104 = EDGE_CURVE ( 'NONE', #280, #279, #209, .T. ) ;
#105 =( LENGTH_UNIT ( ) NAMED_UNIT ( * ) SI_UNIT ( .MILLI., .METRE. ) );
#106 = EDGE_CURVE ( 'NONE', #271, #284, #288, .T. ) ;
#107 = EDGE_CURVE ( 'NONE', #280, #166, #252, .T. ) ;
#108 = DIRECTION ( 'NONE',  ( -1.000000000000000000, -0.0000000000000000000, -0.0000000000000000000 ) ) ;
#109 =( NAMED_UNIT ( * ) PLANE_ANGLE_UNIT ( ) SI_UNIT ( $, .RADIAN. ) );
#110 = SURFACE_SIDE_STYLE ('',( #231 ) ) ;
#111 =( NAMED_UNIT ( * ) PLANE_ANGLE_UNIT ( ) SI_UNIT ( $, .RADIAN. ) );
#112 = DIRECTION ( 'NONE',  ( 0.0000000000000000000, 0.0000000000000000000, -1.000000000000000000 ) ) ;
#113 = DIRECTION ( 'NONE',  ( 0.0000000000000000000, 0.0000000000000000000, -1.000000000000000000 ) ) ;
#114 = UNCERTAINTY_MEASURE_WITH_UNIT (LENGTH_MEASURE( 1.000000000000000100E-005 ), #150, 'distance_accuracy_value', 'NONE');
#115 = UNCERTAINTY_MEASURE_WITH_UNIT (LENGTH_MEASURE( 1.000000000000000100E-005 ), #161, 'distance_accuracy_value', 'NONE');
#116 = CYLINDRICAL_SURFACE ( 'NONE', #304, 1.250000000000000200 ) ;
#117 = UNCERTAINTY_MEASURE_WITH_UNIT (LENGTH_MEASURE( 1.000000000000000100E-005 ), #40, 'distance_accuracy_value', 'NONE');
#118 = FILL_AREA_STYLE_COLOUR ( '', #265 ) ;
#119 = DIRECTION ( 'NONE',  ( 0.0000000000000000000, 0.0000000000000000000, -1.000000000000000000 ) ) ;
#120 = DIRECTION ( 'NONE',  ( 1.000000000000000000, 0.0000000000000000000, 0.0000000000000000000 ) ) ;
#121 = SURFACE_SIDE_STYLE ('',( #260 ) ) ;
#122 = DIRECTION ( 'NONE',  ( -1.000000000000000000, -0.0000000000000000000, -0.0000000000000000000 ) ) ;
#123 =( LENGTH_UNIT ( ) NAMED_UNIT ( * ) SI_UNIT ( .MILLI., .METRE. ) );
#124 = SURFACE_SIDE_STYLE ('',( #138 ) ) ;
#125 = DIRECTION ( 'NONE',  ( 1.000000000000000000, 0.0000000000000000000, 0.0000000000000000000 ) ) ;
#126 = FILL_AREA_STYLE ('',( #332 ) ) ;
#127 = CARTESIAN_POINT ( 'NONE',  ( 105.6568542494924000, 0.0000000000000000000, 2.000000000000000000 ) ) ;
#128 = ADVANCED_FACE ( 'NONE', ( #248 ), #232, .F. ) ;
#129 = ADVANCED_FACE ( 'NONE', ( #169 ), #116, .F. ) ;
#130 = FILL_AREA_STYLE ('',( #160 ) ) ;
#131 = MANIFOLD_SOLID_BREP ( 'Tube', #159 ) ;
#132 = ADVANCED_BREP_SHAPE_REPRESENTATION ( '', ( #131, #233 ), #229 ) ;
#133 = AXIS2_PLACEMENT_3D ( 'NONE', #340, #335, #163 ) ;
#134 =( NAMED_UNIT ( * ) PLANE_ANGLE_UNIT ( ) SI_UNIT ( $, .RADIAN. ) );
#135 = ITEM_DEFINED_TRANSFORMATION ( 'NONE', 'NONE', #205,  #233 ) ;
#136 = CARTESIAN_POINT ( 'NONE',  ( 100.0000000000000000, 0.0000000000000000000, 0.0000000000000000000 ) ) ;
#137 = DIRECTION ( 'NONE',  ( 1.000000000000000000, 0.0000000000000000000, 0.0000000000000000000 ) ) ;
#138 = SURFACE_STYLE_FILL_AREA ( #324 ) ;
#139 = DIRECTION ( 'NONE',  ( 0.0000000000000000000, 0.0000000000000000000, -1.000000000000000000 ) ) ;
#140 = FACE_OUTER_BOUND ( 'NONE', #207, .T. ) ;
#141 = ADVANCED_FACE ( 'NONE', ( #140 ), #91, .T. ) ;
#142 = SURFACE_STYLE_FILL_AREA ( #25 ) ;
#143 = CARTESIAN_POINT ( 'NONE',  ( 105.6568542494924000, 0.0000000000000000000, 0.0000000000000000000 ) ) ;
#144 = PRESENTATION_STYLE_ASSIGNMENT (( #85 ) ) ;
#145 = PRESENTATION_STYLE_ASSIGNMENT (( #23 ) ) ;
#146 = CARTESIAN_POINT ( 'NONE',  ( 0.0000000000000000000, 0.0000000000000000000, 0.0000000000000000000 ) ) ;
#147 = CARTESIAN_POINT ( 'NONE',  ( 0.0000000000000000000, 0.0000000000000000000, 0.0000000000000000000 ) ) ;
#148 = ORIENTED_EDGE ( 'NONE', *, *, #15, .T. ) ;
#149 = FILL_AREA_STYLE ('',( #151 ) ) ;
#150 =( LENGTH_UNIT ( ) NAMED_UNIT ( * ) SI_UNIT ( .MILLI., .METRE. ) );
#151 = FILL_AREA_STYLE_COLOUR ( '', #244 ) ;
#152 = CARTESIAN_POINT ( 'NONE',  ( 105.6568542494924000, 0.0000000000000000000, 0.0000000000000000000 ) ) ;
#153 =( NAMED_UNIT ( * ) PLANE_ANGLE_UNIT ( ) SI_UNIT ( $, .RADIAN. ) );
#154 = PLANE ( 'NONE',  #46 ) ;
#155 = ORIENTED_EDGE ( 'NONE', *, *, #94, .T. ) ;
#156 = DIRECTION ( 'NONE',  ( 1.000000000000000000, 0.0000000000000000000, 0.0000000000000000000 ) ) ;
#157 = FACE_BOUND ( 'NONE', #204, .T. ) ;
#158 = ORIENTED_EDGE ( 'NONE', *, *, #106, .T. ) ;
#159 = CLOSED_SHELL ( 'NONE', ( #129, #141, #292, #13, #128, #9 ) ) ;
#160 = FILL_AREA_STYLE_COLOUR ( '', #276 ) ;
#161 =( LENGTH_UNIT ( ) NAMED_UNIT ( * ) SI_UNIT ( .MILLI., .METRE. ) );
#162 = CARTESIAN_POINT ( 'NONE',  ( 100.0000000000000000, 0.0000000000000000000, 0.0000000000000000000 ) ) ;
#163 = DIRECTION ( 'NONE',  ( 0.0000000000000000000, 0.0000000000000000000, -1.000000000000000000 ) ) ;
#164 = ORIENTED_EDGE ( 'NONE', *, *, #107, .T. ) ;
#165 = ORIENTED_EDGE ( 'NONE', *, *, #107, .F. ) ;
#166 = VERTEX_POINT ( 'NONE', #18 ) ;
#167 = ORIENTED_EDGE ( 'NONE', *, *, #76, .T. ) ;
#168 = ORIENTED_EDGE ( 'NONE', *, *, #75, .T. ) ;
#169 = FACE_OUTER_BOUND ( 'NONE', #296, .T. ) ;
#170 = SHAPE_DEFINITION_REPRESENTATION ( #8, #202 ) ;
#171 = CIRCLE ( 'NONE', #10, 2.000000000000000000 ) ;
#172 = APPLICATION_PROTOCOL_DEFINITION ( 'draft international standard', 'automotive_design', 1998, #187 ) ;
#173 = ORIENTED_EDGE ( 'NONE', *, *, #95, .T. ) ;
#174 = UNCERTAINTY_MEASURE_WITH_UNIT (LENGTH_MEASURE( 1.000000000000000100E-005 ), #38, 'distance_accuracy_value', 'NONE');
#175 = SURFACE_STYLE_USAGE ( .BOTH. , #60 ) ;
#176 = FILL_AREA_STYLE ('',( #33 ) ) ;
#177 = DIRECTION ( 'NONE',  ( 0.0000000000000000000, 0.0000000000000000000, 1.000000000000000000 ) ) ;
#178 = SURFACE_SIDE_STYLE ('',( #51 ) ) ;
#179 = ORIENTED_EDGE ( 'NONE', *, *, #15, .F. ) ;
#180 = LINE ( 'NONE', #327, #254 ) ;
#181 = CIRCLE ( 'NONE', #336, 1.250000000000000200 ) ;
#182 =( LENGTH_UNIT ( ) NAMED_UNIT ( * ) SI_UNIT ( .MILLI., .METRE. ) );
#183 = CARTESIAN_POINT ( 'NONE',  ( 100.0000000000000000, 2.449293598294705900E-016, -2.000000000000000000 ) ) ;
#184 = DIRECTION ( 'NONE',  ( 1.000000000000000000, 0.0000000000000000000, 0.0000000000000000000 ) ) ;
#185 = PRODUCT_DEFINITION_CONTEXT ( 'detailed design', #187, 'design' ) ;
#186 =( NAMED_UNIT ( * ) SI_UNIT ( $, .STERADIAN. ) SOLID_ANGLE_UNIT ( ) );
#187 = APPLICATION_CONTEXT ( 'automotive_design' ) ;
#188 = PRODUCT ( 'TU0425R-20.step', 'TU0425R-20.step', '', ( #83 ) ) ;
#189 = PRODUCT_DEFINITION_SHAPE ( 'NONE', 'NONE',  #341 ) ;
#190 =( NAMED_UNIT ( * ) PLANE_ANGLE_UNIT ( ) SI_UNIT ( $, .RADIAN. ) );
#191 =( NAMED_UNIT ( * ) PLANE_ANGLE_UNIT ( ) SI_UNIT ( $, .RADIAN. ) );
#192 = SURFACE_STYLE_USAGE ( .BOTH. , #67 ) ;
#193 = PRODUCT_RELATED_PRODUCT_CATEGORY ( 'part', '', ( #198 ) ) ;
#194 = PRODUCT_DEFINITION_FORMATION_WITH_SPECIFIED_SOURCE ( 'ANY', '', #198, .NOT_KNOWN. ) ;
#195 = PRODUCT_RELATED_PRODUCT_CATEGORY ( 'part', '', ( #188 ) ) ;
#196 = PRODUCT_DEFINITION_FORMATION_WITH_SPECIFIED_SOURCE ( 'ANY', '', #188, .NOT_KNOWN. ) ;
#197 = SURFACE_SIDE_STYLE ('',( #313 ) ) ;
#198 = PRODUCT ( 'TU0425R-20.step_TU3076 Tube_0425R', 'TU0425R-20.step_TU3076 Tube_0425R', '', ( #62 ) ) ;
#199 = DIRECTION ( 'NONE',  ( 0.0000000000000000000, 0.0000000000000000000, 1.000000000000000000 ) ) ;
#200 = AXIS2_PLACEMENT_3D ( 'NONE', #55, #16, #119 ) ;
#201 = PRODUCT_DEFINITION ( 'UNKNOWN', '', #196, #309 ) ;
#202 = SHAPE_REPRESENTATION ( 'TU0425R-20.step', ( #217, #205 ), #210 ) ;
#203 = PRODUCT_DEFINITION ( 'UNKNOWN', '', #194, #185 ) ;
#204 = EDGE_LOOP ( 'NONE', ( #306, #300 ) ) ;
#205 = AXIS2_PLACEMENT_3D ( 'NONE', #47, #31, #30 ) ;
#206 = ORIENTED_EDGE ( 'NONE', *, *, #95, .F. ) ;
#207 = EDGE_LOOP ( 'NONE', ( #287, #158, #167, #286 ) ) ;
#208 = DIRECTION ( 'NONE',  ( 1.000000000000000000, 0.0000000000000000000, 0.0000000000000000000 ) ) ;
#209 = CIRCLE ( 'NONE', #133, 1.250000000000000200 ) ;
#210 =( GEOMETRIC_REPRESENTATION_CONTEXT ( 3 ) GLOBAL_UNCERTAINTY_ASSIGNED_CONTEXT ( ( #174 ) ) GLOBAL_UNIT_ASSIGNED_CONTEXT ( ( #38, #39, #4 ) ) REPRESENTATION_CONTEXT ( 'NONE', 'WORKASPACE' ) );
#211 = AXIS2_PLACEMENT_3D ( 'NONE', #26, #177, #184 ) ;
#212 = VERTEX_POINT ( 'NONE', #330 ) ;
#213 = SURFACE_STYLE_FILL_AREA ( #21 ) ;
#214 = COLOUR_RGB ( '',1.000000000000000000, 0.1254901960784313700, 0.1607843137254901800 ) ;
#215 = PRESENTATION_STYLE_ASSIGNMENT (( #175 ) ) ;
#216 =( NAMED_UNIT ( * ) SI_UNIT ( $, .STERADIAN. ) SOLID_ANGLE_UNIT ( ) );
#217 = AXIS2_PLACEMENT_3D ( 'NONE', #24, #41, #42 ) ;
#218 =( GEOMETRIC_REPRESENTATION_CONTEXT ( 3 ) GLOBAL_UNCERTAINTY_ASSIGNED_CONTEXT ( ( #14 ) ) GLOBAL_UNIT_ASSIGNED_CONTEXT ( ( #44, #45, #186 ) ) REPRESENTATION_CONTEXT ( 'NONE', 'WORKASPACE' ) );
#219 = CARTESIAN_POINT ( 'NONE',  ( 105.6568542494924000, 0.0000000000000000000, 0.0000000000000000000 ) ) ;
#220 = MECHANICAL_DESIGN_GEOMETRIC_PRESENTATION_REPRESENTATION (  '', ( #222 ), #218 ) ;
#221 = PRESENTATION_LAYER_ASSIGNMENT (  '', '', ( #222 ) ) ;
#222 = STYLED_ITEM ( 'NONE', ( #215 ), #132 ) ;
#223 = CARTESIAN_POINT ( 'NONE',  ( 100.0000000000000000, 0.0000000000000000000, 0.0000000000000000000 ) ) ;
#224 = AXIS2_PLACEMENT_3D ( 'NONE', #219, #64, #98 ) ;
#225 = COLOUR_RGB ( '',1.000000000000000000, 0.1254901960784313700, 0.1607843137254901800 ) ;
#226 = COLOUR_RGB ( '',0.0000000000000000000, 0.5843137254901961100, 0.9058823529411764700 ) ;
#227 = AXIS2_PLACEMENT_3D ( 'NONE', #2, #208, #230 ) ;
#228 = DIRECTION ( 'NONE',  ( 0.0000000000000000000, 0.0000000000000000000, -1.000000000000000000 ) ) ;
#229 =( GEOMETRIC_REPRESENTATION_CONTEXT ( 3 ) GLOBAL_UNCERTAINTY_ASSIGNED_CONTEXT ( ( #54 ) ) GLOBAL_UNIT_ASSIGNED_CONTEXT ( ( #182, #5, #102 ) ) REPRESENTATION_CONTEXT ( 'NONE', 'WORKASPACE' ) );
#230 = DIRECTION ( 'NONE',  ( 0.0000000000000000000, 0.0000000000000000000, -1.000000000000000000 ) ) ;
#231 = SURFACE_STYLE_FILL_AREA ( #126 ) ;
#232 = CYLINDRICAL_SURFACE ( 'NONE', #318, 1.250000000000000200 ) ;
#233 = AXIS2_PLACEMENT_3D ( 'NONE', #43, #74, #78 ) ;
#234 = FILL_AREA_STYLE_COLOUR ( '', #225 ) ;
#235 = FACE_BOUND ( 'NONE', #272, .T. ) ;
#236 = DIRECTION ( 'NONE',  ( 0.0000000000000000000, 0.0000000000000000000, 1.000000000000000000 ) ) ;
#237 = DIRECTION ( 'NONE',  ( -1.000000000000000000, -0.0000000000000000000, -0.0000000000000000000 ) ) ;
#238 =( GEOMETRIC_REPRESENTATION_CONTEXT ( 3 ) GLOBAL_UNCERTAINTY_ASSIGNED_CONTEXT ( ( #117 ) ) GLOBAL_UNIT_ASSIGNED_CONTEXT ( ( #40, #191, #58 ) ) REPRESENTATION_CONTEXT ( 'NONE', 'WORKASPACE' ) );
#239 = LINE ( 'NONE', #127, #243 ) ;
#240 = DIRECTION ( 'NONE',  ( -1.000000000000000000, -0.0000000000000000000, -0.0000000000000000000 ) ) ;
#241 = CIRCLE ( 'NONE', #200, 1.250000000000000200 ) ;
#242 = MECHANICAL_DESIGN_GEOMETRIC_PRESENTATION_REPRESENTATION (  '', ( #253 ), #238 ) ;
#243 = VECTOR ( 'NONE', #305, 1000.000000000000000 ) ;
#244 = COLOUR_RGB ( '',1.000000000000000000, 0.1254901960784313700, 0.1607843137254901800 ) ;
#245 = FACE_OUTER_BOUND ( 'NONE', #282, .T. ) ;
#246 = AXIS2_PLACEMENT_3D ( 'NONE', #69, #108, #199 ) ;
#247 = ORIENTED_EDGE ( 'NONE', *, *, #76, .F. ) ;
#248 = FACE_OUTER_BOUND ( 'NONE', #268, .T. ) ;
#249 = ORIENTED_EDGE ( 'NONE', *, *, #89, .F. ) ;
#250 = EDGE_LOOP ( 'NONE', ( #267, #247 ) ) ;
#251 = VERTEX_POINT ( 'NONE', #79 ) ;
#252 = LINE ( 'NONE', #328, #297 ) ;
#253 = STYLED_ITEM ( 'NONE', ( #96 ), #292 ) ;
#254 = VECTOR ( 'NONE', #237, 1000.000000000000000 ) ;
#255 = ORIENTED_EDGE ( 'NONE', *, *, #35, .T. ) ;
#256 = PRESENTATION_LAYER_ASSIGNMENT (  '', '', ( #253 ) ) ;
#257 = VERTEX_POINT ( 'NONE', #311 ) ;
#258 = FACE_OUTER_BOUND ( 'NONE', #250, .T. ) ;
#259 = VECTOR ( 'NONE', #122, 1000.000000000000000 ) ;
#260 = SURFACE_STYLE_FILL_AREA ( #149 ) ;
#261 =( GEOMETRIC_REPRESENTATION_CONTEXT ( 3 ) GLOBAL_UNCERTAINTY_ASSIGNED_CONTEXT ( ( #12 ) ) GLOBAL_UNIT_ASSIGNED_CONTEXT ( ( #17, #97, #320 ) ) REPRESENTATION_CONTEXT ( 'NONE', 'WORKASPACE' ) );
#262 = CIRCLE ( 'NONE', #6, 1.250000000000000200 ) ;
#263 = PLANE ( 'NONE',  #57 ) ;
#264 = ORIENTED_EDGE ( 'NONE', *, *, #89, .T. ) ;
#265 = COLOUR_RGB ( '',1.000000000000000000, 0.1254901960784313700, 0.1607843137254901800 ) ;
#266 = DIRECTION ( 'NONE',  ( 0.0000000000000000000, 0.0000000000000000000, -1.000000000000000000 ) ) ;
#267 = ORIENTED_EDGE ( 'NONE', *, *, #88, .F. ) ;
#268 = EDGE_LOOP ( 'NONE', ( #165, #269, #173, #249 ) ) ;
#269 = ORIENTED_EDGE ( 'NONE', *, *, #104, .T. ) ;
#270 = MECHANICAL_DESIGN_GEOMETRIC_PRESENTATION_REPRESENTATION (  '', ( #301 ), #261 ) ;
#271 = VERTEX_POINT ( 'NONE', #183 ) ;
#272 = EDGE_LOOP ( 'NONE', ( #148, #264 ) ) ;
#273 = CIRCLE ( 'NONE', #312, 2.000000000000000000 ) ;
#274 = CIRCLE ( 'NONE', #227, 2.000000000000000000 ) ;
#275 =( GEOMETRIC_REPRESENTATION_CONTEXT ( 3 ) GLOBAL_UNCERTAINTY_ASSIGNED_CONTEXT ( ( #72 ) ) GLOBAL_UNIT_ASSIGNED_CONTEXT ( ( #123, #190, #100 ) ) REPRESENTATION_CONTEXT ( 'NONE', 'WORKASPACE' ) );
#276 = COLOUR_RGB ( '',1.000000000000000000, 0.1254901960784313700, 0.1607843137254901800 ) ;
#277 = MECHANICAL_DESIGN_GEOMETRIC_PRESENTATION_REPRESENTATION (  '', ( #293 ), #275 ) ;
#278 =( NAMED_UNIT ( * ) SI_UNIT ( $, .STERADIAN. ) SOLID_ANGLE_UNIT ( ) );
#279 = VERTEX_POINT ( 'NONE', #29 ) ;
#280 = VERTEX_POINT ( 'NONE', #27 ) ;
#281 = ORIENTED_EDGE ( 'NONE', *, *, #81, .T. ) ;
#282 = EDGE_LOOP ( 'NONE', ( #168, #281 ) ) ;
#283 = COLOUR_RGB ( '',1.000000000000000000, 0.1254901960784313700, 0.1607843137254901800 ) ;
#284 = VERTEX_POINT ( 'NONE', #32 ) ;
#285 = ORIENTED_EDGE ( 'NONE', *, *, #106, .F. ) ;
#286 = ORIENTED_EDGE ( 'NONE', *, *, #35, .F. ) ;
#287 = ORIENTED_EDGE ( 'NONE', *, *, #81, .F. ) ;
#288 = LINE ( 'NONE', #11, #259 ) ;
#289 = PRESENTATION_LAYER_ASSIGNMENT (  '', '', ( #293 ) ) ;
#290 = PRESENTATION_STYLE_ASSIGNMENT (( #99 ) ) ;
#291 = CIRCLE ( 'NONE', #37, 2.000000000000000000 ) ;
#292 = ADVANCED_FACE ( 'NONE', ( #101 ), #92, .T. ) ;
#293 = STYLED_ITEM ( 'NONE', ( #144 ), #131 ) ;
#294 = ORIENTED_EDGE ( 'NONE', *, *, #88, .T. ) ;
#295 = PRESENTATION_STYLE_ASSIGNMENT (( #310 ) ) ;
#296 = EDGE_LOOP ( 'NONE', ( #155, #164, #179, #206 ) ) ;
#297 = VECTOR ( 'NONE', #240, 1000.000000000000000 ) ;
#298 = SURFACE_STYLE_FILL_AREA ( #28 ) ;
#299 = DIRECTION ( 'NONE',  ( -1.000000000000000000, -0.0000000000000000000, -0.0000000000000000000 ) ) ;
#300 = ORIENTED_EDGE ( 'NONE', *, *, #104, .F. ) ;
#301 = STYLED_ITEM ( 'NONE', ( #145 ), #141 ) ;
#302 = EDGE_LOOP ( 'NONE', ( #285, #87, #255, #294 ) ) ;
#303 = UNCERTAINTY_MEASURE_WITH_UNIT (LENGTH_MEASURE( 1.000000000000000100E-005 ), #105, 'distance_accuracy_value', 'NONE');
#304 = AXIS2_PLACEMENT_3D ( 'NONE', #143, #325, #236 ) ;
#305 = DIRECTION ( 'NONE',  ( -1.000000000000000000, -0.0000000000000000000, -0.0000000000000000000 ) ) ;
#306 = ORIENTED_EDGE ( 'NONE', *, *, #94, .F. ) ;
#307 =( NAMED_UNIT ( * ) SI_UNIT ( $, .STERADIAN. ) SOLID_ANGLE_UNIT ( ) );
#308 = PRESENTATION_LAYER_ASSIGNMENT (  '', '', ( #301 ) ) ;
#309 = PRODUCT_DEFINITION_CONTEXT ( 'detailed design', #80, 'design' ) ;
#310 = SURFACE_STYLE_USAGE ( .BOTH. , #121 ) ;
#311 = CARTESIAN_POINT ( 'NONE',  ( 0.0000000000000000000, 0.0000000000000000000, 1.250000000000000200 ) ) ;
#312 = AXIS2_PLACEMENT_3D ( 'NONE', #339, #125, #1 ) ;
#313 = SURFACE_STYLE_FILL_AREA ( #130 ) ;
#314 = MECHANICAL_DESIGN_GEOMETRIC_PRESENTATION_REPRESENTATION (  '', ( #321 ), #317 ) ;
#315 = DIRECTION ( 'NONE',  ( 1.000000000000000000, 0.0000000000000000000, 0.0000000000000000000 ) ) ;
#316 = CONTEXT_DEPENDENT_SHAPE_REPRESENTATION ( #82, #189 ) ;
#317 =( GEOMETRIC_REPRESENTATION_CONTEXT ( 3 ) GLOBAL_UNCERTAINTY_ASSIGNED_CONTEXT ( ( #303 ) ) GLOBAL_UNIT_ASSIGNED_CONTEXT ( ( #105, #134, #71 ) ) REPRESENTATION_CONTEXT ( 'NONE', 'WORKASPACE' ) );
#318 = AXIS2_PLACEMENT_3D ( 'NONE', #152, #299, #323 ) ;
#319 = CARTESIAN_POINT ( 'NONE',  ( 0.0000000000000000000, 0.0000000000000000000, 0.0000000000000000000 ) ) ;
#320 =( NAMED_UNIT ( * ) SI_UNIT ( $, .STERADIAN. ) SOLID_ANGLE_UNIT ( ) );
#321 = STYLED_ITEM ( 'NONE', ( #290 ), #129 ) ;
#322 = PRESENTATION_LAYER_ASSIGNMENT (  '', '', ( #321 ) ) ;
#323 = DIRECTION ( 'NONE',  ( 0.0000000000000000000, 0.0000000000000000000, 1.000000000000000000 ) ) ;
#324 = FILL_AREA_STYLE ('',( #103 ) ) ;
#325 = DIRECTION ( 'NONE',  ( -1.000000000000000000, -0.0000000000000000000, -0.0000000000000000000 ) ) ;
#326 = UNCERTAINTY_MEASURE_WITH_UNIT (LENGTH_MEASURE( 1.000000000000000100E-005 ), #3, 'distance_accuracy_value', 'NONE');
#327 = CARTESIAN_POINT ( 'NONE',  ( 105.6568542494924000, 0.0000000000000000000, 1.250000000000000200 ) ) ;
#328 = CARTESIAN_POINT ( 'NONE',  ( 105.6568542494924000, 1.530808498934191600E-016, -1.250000000000000200 ) ) ;
#329 =( GEOMETRIC_REPRESENTATION_CONTEXT ( 3 ) GLOBAL_UNCERTAINTY_ASSIGNED_CONTEXT ( ( #326 ) ) GLOBAL_UNIT_ASSIGNED_CONTEXT ( ( #3, #111, #307 ) ) REPRESENTATION_CONTEXT ( 'NONE', 'WORKASPACE' ) );
#330 = CARTESIAN_POINT ( 'NONE',  ( 0.0000000000000000000, 0.0000000000000000000, 2.000000000000000000 ) ) ;
#331 = MECHANICAL_DESIGN_GEOMETRIC_PRESENTATION_REPRESENTATION (  '', ( #70 ), #329 ) ;
#332 = FILL_AREA_STYLE_COLOUR ( '', #283 ) ;
#333 = PRESENTATION_LAYER_ASSIGNMENT (  '', '', ( #70 ) ) ;
#334 = DIRECTION ( 'NONE',  ( 1.000000000000000000, 0.0000000000000000000, 0.0000000000000000000 ) ) ;
#335 = DIRECTION ( 'NONE',  ( 1.000000000000000000, 0.0000000000000000000, 0.0000000000000000000 ) ) ;
#336 = AXIS2_PLACEMENT_3D ( 'NONE', #146, #334, #139 ) ;
#337 = PRESENTATION_STYLE_ASSIGNMENT (( #192 ) ) ;
#338 = SURFACE_STYLE_USAGE ( .BOTH. , #197 ) ;
#339 = CARTESIAN_POINT ( 'NONE',  ( 0.0000000000000000000, 0.0000000000000000000, 0.0000000000000000000 ) ) ;
#340 = CARTESIAN_POINT ( 'NONE',  ( 100.0000000000000000, 0.0000000000000000000, 0.0000000000000000000 ) ) ;
#341 = NEXT_ASSEMBLY_USAGE_OCCURRENCE ( 'NAUO1', ' ', ' ', #201, #203, $ ) ;
ENDSEC;
END-ISO-10303-21;
