ISO-10303-21;
HEADER;
FILE_DESCRIPTION (( 'STEP AP214' ),
    '1' );
FILE_NAME ('TU0604C-20.step.step',
    '2011-11-10T08:07:27',
    ( 'SysAdmin' ),
    ( 'SolidWorks' ),
    'SwSTEP 2.0',
    'SolidWorks 2012',
    '' );
FILE_SCHEMA (( 'AUTOMOTIVE_DESIGN' ));
ENDSEC;

DATA;
#1 = ORIENTED_EDGE ( 'NONE', *, *, #48, .T. ) ;
#2 = EDGE_LOOP ( 'NONE', ( #38, #49 ) ) ;
#3 = EDGE_CURVE ( 'NONE', #21, #47, #65, .T. ) ;
#4 = VERTEX_POINT ( 'NONE', #77 ) ;
#5 = ORIENTED_EDGE ( 'NONE', *, *, #22, .F. ) ;
#6 = VERTEX_POINT ( 'NONE', #69 ) ;
#7 = ADVANCED_FACE ( 'NONE', ( #74 ), #111, .T. ) ;
#8 = ORIENTED_EDGE ( 'NONE', *, *, #10, .F. ) ;
#9 = ORIENTED_EDGE ( 'NONE', *, *, #50, .T. ) ;
#10 = EDGE_CURVE ( 'NONE', #21, #6, #117, .T. ) ;
#11 = EDGE_LOOP ( 'NONE', ( #17, #43, #62, #45 ) ) ;
#12 = EDGE_CURVE ( 'NONE', #4, #6, #114, .T. ) ;
#13 = ADVANCED_FACE ( 'NONE', ( #71 ), #139, .T. ) ;
#14 = ORIENTED_EDGE ( 'NONE', *, *, #10, .T. ) ;
#15 = ORIENTED_EDGE ( 'NONE', *, *, #3, .F. ) ;
#16 = VERTEX_POINT ( 'NONE', #135 ) ;
#17 = ORIENTED_EDGE ( 'NONE', *, *, #66, .T. ) ;
#18 = VERTEX_POINT ( 'NONE', #138 ) ;
#19 = ADVANCED_FACE ( 'NONE', ( #128 ), #79, .F. ) ;
#20 = EDGE_CURVE ( 'NONE', #67, #23, #211, .T. ) ;
#21 = VERTEX_POINT ( 'NONE', #268 ) ;
#22 = EDGE_CURVE ( 'NONE', #47, #21, #254, .T. ) ;
#23 = VERTEX_POINT ( 'NONE', #208 ) ;
#24 = EDGE_LOOP ( 'NONE', ( #15, #14, #1, #51 ) ) ;
#25 = ORIENTED_EDGE ( 'NONE', *, *, #56, .F. ) ;
#26 = EDGE_LOOP ( 'NONE', ( #8, #5, #9, #27 ) ) ;
#27 = ORIENTED_EDGE ( 'NONE', *, *, #12, .T. ) ;
#28 = EDGE_CURVE ( 'NONE', #23, #16, #225, .T. ) ;
#29 = EDGE_LOOP ( 'NONE', ( #53, #40, #42, #41 ) ) ;
#30 = ORIENTED_EDGE ( 'NONE', *, *, #3, .T. ) ;
#31 = ORIENTED_EDGE ( 'NONE', *, *, #22, .T. ) ;
#32 = CARTESIAN_POINT ( 'NONE',  ( 100.0000000000000000, 0.0000000000000000000, 0.0000000000000000000 ) ) ;
#33 = DIRECTION ( 'NONE',  ( 0.0000000000000000000, 0.0000000000000000000, -1.000000000000000000 ) ) ;
#34 = EDGE_LOOP ( 'NONE', ( #31, #30 ) ) ;
#35 = ADVANCED_FACE ( 'NONE', ( #158, #250 ), #161, .T. ) ;
#36 = UNCERTAINTY_MEASURE_WITH_UNIT (LENGTH_MEASURE( 1.000000000000000100E-005 ), #230, 'distance_accuracy_value', 'NONE');
#37 = CLOSED_SHELL ( 'NONE', ( #19, #13, #7, #57, #55, #35 ) ) ;
#38 = ORIENTED_EDGE ( 'NONE', *, *, #12, .F. ) ;
#39 = EDGE_LOOP ( 'NONE', ( #52, #54 ) ) ;
#40 = ORIENTED_EDGE ( 'NONE', *, *, #56, .T. ) ;
#41 = ORIENTED_EDGE ( 'NONE', *, *, #28, .F. ) ;
#42 = ORIENTED_EDGE ( 'NONE', *, *, #46, .T. ) ;
#43 = ORIENTED_EDGE ( 'NONE', *, *, #20, .T. ) ;
#44 = EDGE_CURVE ( 'NONE', #16, #23, #203, .T. ) ;
#45 = ORIENTED_EDGE ( 'NONE', *, *, #46, .F. ) ;
#46 = EDGE_CURVE ( 'NONE', #18, #16, #201, .T. ) ;
#47 = VERTEX_POINT ( 'NONE', #196 ) ;
#48 = EDGE_CURVE ( 'NONE', #6, #4, #197, .T. ) ;
#49 = ORIENTED_EDGE ( 'NONE', *, *, #48, .F. ) ;
#50 = EDGE_CURVE ( 'NONE', #47, #4, #181, .T. ) ;
#51 = ORIENTED_EDGE ( 'NONE', *, *, #50, .F. ) ;
#52 = ORIENTED_EDGE ( 'NONE', *, *, #44, .T. ) ;
#53 = ORIENTED_EDGE ( 'NONE', *, *, #20, .F. ) ;
#54 = ORIENTED_EDGE ( 'NONE', *, *, #28, .T. ) ;
#55 = ADVANCED_FACE ( 'NONE', ( #160 ), #173, .F. ) ;
#56 = EDGE_CURVE ( 'NONE', #67, #18, #261, .T. ) ;
#57 = ADVANCED_FACE ( 'NONE', ( #257, #267 ), #185, .F. ) ;
#58 = EDGE_LOOP ( 'NONE', ( #59, #25 ) ) ;
#59 = ORIENTED_EDGE ( 'NONE', *, *, #66, .F. ) ;
#60 =( GEOMETRIC_REPRESENTATION_CONTEXT ( 3 ) GLOBAL_UNCERTAINTY_ASSIGNED_CONTEXT ( ( #80 ) ) GLOBAL_UNIT_ASSIGNED_CONTEXT ( ( #83, #82, #81 ) ) REPRESENTATION_CONTEXT ( 'NONE', 'WORKASPACE' ) );
#61 = MANIFOLD_SOLID_BREP ( 'Tube', #37 ) ;
#62 = ORIENTED_EDGE ( 'NONE', *, *, #44, .F. ) ;
#63 = AXIS2_PLACEMENT_3D ( 'NONE', #32, #94, #68 ) ;
#64 = COLOUR_RGB ( '',0.9686274509803921600, 1.000000000000000000, 0.9803921568627450600 ) ;
#65 = CIRCLE ( 'NONE', #63, 3.000000000000000400 ) ;
#66 = EDGE_CURVE ( 'NONE', #18, #67, #294, .T. ) ;
#67 = VERTEX_POINT ( 'NONE', #153 ) ;
#68 = DIRECTION ( 'NONE',  ( 0.0000000000000000000, 0.0000000000000000000, -1.000000000000000000 ) ) ;
#69 = CARTESIAN_POINT ( 'NONE',  ( 0.0000000000000000000, 3.673940397442060400E-016, -3.000000000000000400 ) ) ;
#70 = CARTESIAN_POINT ( 'NONE',  ( 108.4852813742385700, 0.0000000000000000000, 0.0000000000000000000 ) ) ;
#71 = FACE_OUTER_BOUND ( 'NONE', #24, .T. ) ;
#72 = COLOUR_RGB ( '',0.9686274509803921600, 1.000000000000000000, 0.9803921568627450600 ) ;
#73 = DIRECTION ( 'NONE',  ( -1.000000000000000000, -0.0000000000000000000, -0.0000000000000000000 ) ) ;
#74 = FACE_OUTER_BOUND ( 'NONE', #26, .T. ) ;
#75 = AXIS2_PLACEMENT_3D ( 'NONE', #70, #73, #93 ) ;
#76 = FILL_AREA_STYLE_COLOUR ( '', #72 ) ;
#77 = CARTESIAN_POINT ( 'NONE',  ( 0.0000000000000000000, 0.0000000000000000000, 3.000000000000000400 ) ) ;
#78 = FILL_AREA_STYLE ('',( #76 ) ) ;
#79 = CYLINDRICAL_SURFACE ( 'NONE', #75, 2.000000000000000000 ) ;
#80 = UNCERTAINTY_MEASURE_WITH_UNIT (LENGTH_MEASURE( 1.000000000000000100E-005 ), #83, 'distance_accuracy_value', 'NONE');
#81 =( NAMED_UNIT ( * ) SI_UNIT ( $, .STERADIAN. ) SOLID_ANGLE_UNIT ( ) );
#82 =( NAMED_UNIT ( * ) PLANE_ANGLE_UNIT ( ) SI_UNIT ( $, .RADIAN. ) );
#83 =( LENGTH_UNIT ( ) NAMED_UNIT ( * ) SI_UNIT ( .MILLI., .METRE. ) );
#84 = MECHANICAL_DESIGN_GEOMETRIC_PRESENTATION_REPRESENTATION (  '', ( #86 ), #60 ) ;
#85 = PRESENTATION_LAYER_ASSIGNMENT (  '', '', ( #86 ) ) ;
#86 = STYLED_ITEM ( 'NONE', ( #87 ), #7 ) ;
#87 = PRESENTATION_STYLE_ASSIGNMENT (( #88 ) ) ;
#88 = SURFACE_STYLE_USAGE ( .BOTH. , #89 ) ;
#89 = SURFACE_SIDE_STYLE ('',( #90 ) ) ;
#90 = SURFACE_STYLE_FILL_AREA ( #78 ) ;
#91 =( LENGTH_UNIT ( ) NAMED_UNIT ( * ) SI_UNIT ( .MILLI., .METRE. ) );
#92 =( GEOMETRIC_REPRESENTATION_CONTEXT ( 3 ) GLOBAL_UNCERTAINTY_ASSIGNED_CONTEXT ( ( #36 ) ) GLOBAL_UNIT_ASSIGNED_CONTEXT ( ( #230, #229, #228 ) ) REPRESENTATION_CONTEXT ( 'NONE', 'WORKASPACE' ) );
#93 = DIRECTION ( 'NONE',  ( 0.0000000000000000000, 0.0000000000000000000, 1.000000000000000000 ) ) ;
#94 = DIRECTION ( 'NONE',  ( 1.000000000000000000, 0.0000000000000000000, 0.0000000000000000000 ) ) ;
#95 = PRESENTATION_STYLE_ASSIGNMENT (( #106 ) ) ;
#96 = DIRECTION ( 'NONE',  ( 1.000000000000000000, 0.0000000000000000000, 0.0000000000000000000 ) ) ;
#97 = CARTESIAN_POINT ( 'NONE',  ( 108.4852813742385700, 0.0000000000000000000, 0.0000000000000000000 ) ) ;
#98 = CARTESIAN_POINT ( 'NONE',  ( 0.0000000000000000000, 0.0000000000000000000, 0.0000000000000000000 ) ) ;
#99 = FILL_AREA_STYLE_COLOUR ( '', #64 ) ;
#100 = SHAPE_REPRESENTATION ( 'TU0604C-20.step_TU3076 Tube_0604C', ( #282 ), #284 ) ;
#101 = MECHANICAL_DESIGN_GEOMETRIC_PRESENTATION_REPRESENTATION (  '', ( #103 ), #140 ) ;
#102 = PRESENTATION_LAYER_ASSIGNMENT (  '', '', ( #103 ) ) ;
#103 = STYLED_ITEM ( 'NONE', ( #95 ), #13 ) ;
#104 = DIRECTION ( 'NONE',  ( -1.000000000000000000, -0.0000000000000000000, -0.0000000000000000000 ) ) ;
#105 = SURFACE_SIDE_STYLE ('',( #112 ) ) ;
#106 = SURFACE_STYLE_USAGE ( .BOTH. , #105 ) ;
#107 = AXIS2_PLACEMENT_3D ( 'NONE', #97, #113, #110 ) ;
#108 = AXIS2_PLACEMENT_3D ( 'NONE', #98, #96, #33 ) ;
#109 = FILL_AREA_STYLE ('',( #99 ) ) ;
#110 = DIRECTION ( 'NONE',  ( 0.0000000000000000000, 0.0000000000000000000, 1.000000000000000000 ) ) ;
#111 = CYLINDRICAL_SURFACE ( 'NONE', #107, 3.000000000000000400 ) ;
#112 = SURFACE_STYLE_FILL_AREA ( #109 ) ;
#113 = DIRECTION ( 'NONE',  ( -1.000000000000000000, -0.0000000000000000000, -0.0000000000000000000 ) ) ;
#114 = CIRCLE ( 'NONE', #108, 3.000000000000000400 ) ;
#115 = VECTOR ( 'NONE', #104, 1000.000000000000000 ) ;
#116 = CARTESIAN_POINT ( 'NONE',  ( 108.4852813742385700, 3.673940397442060400E-016, -3.000000000000000400 ) ) ;
#117 = LINE ( 'NONE', #116, #115 ) ;
#118 =( NAMED_UNIT ( * ) PLANE_ANGLE_UNIT ( ) SI_UNIT ( $, .RADIAN. ) );
#119 = UNCERTAINTY_MEASURE_WITH_UNIT (LENGTH_MEASURE( 1.000000000000000100E-005 ), #91, 'distance_accuracy_value', 'NONE');
#120 =( NAMED_UNIT ( * ) SI_UNIT ( $, .STERADIAN. ) SOLID_ANGLE_UNIT ( ) );
#121 = MECHANICAL_DESIGN_GEOMETRIC_PRESENTATION_REPRESENTATION (  '', ( #123 ), #141 ) ;
#122 = PRESENTATION_LAYER_ASSIGNMENT (  '', '', ( #123 ) ) ;
#123 = STYLED_ITEM ( 'NONE', ( #124 ), #19 ) ;
#124 = PRESENTATION_STYLE_ASSIGNMENT (( #125 ) ) ;
#125 = SURFACE_STYLE_USAGE ( .BOTH. , #126 ) ;
#126 = SURFACE_SIDE_STYLE ('',( #127 ) ) ;
#127 = SURFACE_STYLE_FILL_AREA ( #129 ) ;
#128 = FACE_OUTER_BOUND ( 'NONE', #11, .T. ) ;
#129 = FILL_AREA_STYLE ('',( #136 ) ) ;
#130 = DIRECTION ( 'NONE',  ( 0.0000000000000000000, 0.0000000000000000000, 1.000000000000000000 ) ) ;
#131 = DIRECTION ( 'NONE',  ( -1.000000000000000000, -0.0000000000000000000, -0.0000000000000000000 ) ) ;
#132 = CARTESIAN_POINT ( 'NONE',  ( 108.4852813742385700, 0.0000000000000000000, 0.0000000000000000000 ) ) ;
#133 = AXIS2_PLACEMENT_3D ( 'NONE', #132, #131, #130 ) ;
#134 = SHAPE_REPRESENTATION_RELATIONSHIP ( 'NONE' , 'NONE' ,  #100, #283 ) ;
#135 = CARTESIAN_POINT ( 'NONE',  ( 0.0000000000000000000, 0.0000000000000000000, 2.000000000000000000 ) ) ;
#136 = FILL_AREA_STYLE_COLOUR ( '', #137 ) ;
#137 = COLOUR_RGB ( '',0.9686274509803921600, 1.000000000000000000, 0.9803921568627450600 ) ;
#138 = CARTESIAN_POINT ( 'NONE',  ( 100.0000000000000000, 0.0000000000000000000, 2.000000000000000000 ) ) ;
#139 = CYLINDRICAL_SURFACE ( 'NONE', #133, 3.000000000000000400 ) ;
#140 =( GEOMETRIC_REPRESENTATION_CONTEXT ( 3 ) GLOBAL_UNCERTAINTY_ASSIGNED_CONTEXT ( ( #119 ) ) GLOBAL_UNIT_ASSIGNED_CONTEXT ( ( #91, #118, #120 ) ) REPRESENTATION_CONTEXT ( 'NONE', 'WORKASPACE' ) );
#141 =( GEOMETRIC_REPRESENTATION_CONTEXT ( 3 ) GLOBAL_UNCERTAINTY_ASSIGNED_CONTEXT ( ( #142 ) ) GLOBAL_UNIT_ASSIGNED_CONTEXT ( ( #145, #144, #143 ) ) REPRESENTATION_CONTEXT ( 'NONE', 'WORKASPACE' ) );
#142 = UNCERTAINTY_MEASURE_WITH_UNIT (LENGTH_MEASURE( 1.000000000000000100E-005 ), #145, 'distance_accuracy_value', 'NONE');
#143 =( NAMED_UNIT ( * ) SI_UNIT ( $, .STERADIAN. ) SOLID_ANGLE_UNIT ( ) );
#144 =( NAMED_UNIT ( * ) PLANE_ANGLE_UNIT ( ) SI_UNIT ( $, .RADIAN. ) );
#145 =( LENGTH_UNIT ( ) NAMED_UNIT ( * ) SI_UNIT ( .MILLI., .METRE. ) );
#146 =( LENGTH_UNIT ( ) NAMED_UNIT ( * ) SI_UNIT ( .MILLI., .METRE. ) );
#147 = MECHANICAL_DESIGN_GEOMETRIC_PRESENTATION_REPRESENTATION (  '', ( #149 ), #221 ) ;
#148 = PRESENTATION_LAYER_ASSIGNMENT (  '', '', ( #149 ) ) ;
#149 = STYLED_ITEM ( 'NONE', ( #150 ), #61 ) ;
#150 = PRESENTATION_STYLE_ASSIGNMENT (( #151 ) ) ;
#151 = SURFACE_STYLE_USAGE ( .BOTH. , #152 ) ;
#152 = SURFACE_SIDE_STYLE ('',( #274 ) ) ;
#153 = CARTESIAN_POINT ( 'NONE',  ( 100.0000000000000000, 2.449293598294706400E-016, -2.000000000000000000 ) ) ;
#154 = DIRECTION ( 'NONE',  ( 0.0000000000000000000, 0.0000000000000000000, -1.000000000000000000 ) ) ;
#155 = DIRECTION ( 'NONE',  ( 1.000000000000000000, 0.0000000000000000000, 0.0000000000000000000 ) ) ;
#156 = CARTESIAN_POINT ( 'NONE',  ( 0.0000000000000000000, 0.0000000000000000000, 0.0000000000000000000 ) ) ;
#157 = CARTESIAN_POINT ( 'NONE',  ( 100.0000000000000000, 0.0000000000000000000, 0.0000000000000000000 ) ) ;
#158 = FACE_BOUND ( 'NONE', #58, .T. ) ;
#159 = SURFACE_STYLE_FILL_AREA ( #270 ) ;
#160 = FACE_OUTER_BOUND ( 'NONE', #29, .T. ) ;
#161 = PLANE ( 'NONE',  #226 ) ;
#162 = DIRECTION ( 'NONE',  ( 0.0000000000000000000, 0.0000000000000000000, -1.000000000000000000 ) ) ;
#163 =( NAMED_UNIT ( * ) PLANE_ANGLE_UNIT ( ) SI_UNIT ( $, .RADIAN. ) );
#164 = CARTESIAN_POINT ( 'NONE',  ( 0.0000000000000000000, 0.0000000000000000000, 0.0000000000000000000 ) ) ;
#165 = AXIS2_PLACEMENT_3D ( 'NONE', #157, #271, #279 ) ;
#166 = MECHANICAL_DESIGN_GEOMETRIC_PRESENTATION_REPRESENTATION (  '', ( #168 ), #207 ) ;
#167 = PRESENTATION_LAYER_ASSIGNMENT (  '', '', ( #168 ) ) ;
#168 = STYLED_ITEM ( 'NONE', ( #169 ), #35 ) ;
#169 = PRESENTATION_STYLE_ASSIGNMENT (( #170 ) ) ;
#170 = SURFACE_STYLE_USAGE ( .BOTH. , #172 ) ;
#171 = DIRECTION ( 'NONE',  ( 1.000000000000000000, 0.0000000000000000000, 0.0000000000000000000 ) ) ;
#172 = SURFACE_SIDE_STYLE ('',( #159 ) ) ;
#173 = CYLINDRICAL_SURFACE ( 'NONE', #190, 2.000000000000000000 ) ;
#174 = FILL_AREA_STYLE_COLOUR ( '', #273 ) ;
#175 = AXIS2_PLACEMENT_3D ( 'NONE', #260, #259, #258 ) ;
#176 = AXIS2_PLACEMENT_3D ( 'NONE', #293, #292, #291 ) ;
#177 = FILL_AREA_STYLE ('',( #189 ) ) ;
#178 = DIRECTION ( 'NONE',  ( -1.000000000000000000, -0.0000000000000000000, -0.0000000000000000000 ) ) ;
#179 = VECTOR ( 'NONE', #178, 1000.000000000000000 ) ;
#180 = CARTESIAN_POINT ( 'NONE',  ( 108.4852813742385700, 0.0000000000000000000, 3.000000000000000400 ) ) ;
#181 = LINE ( 'NONE', #180, #179 ) ;
#182 = SURFACE_SIDE_STYLE ('',( #183 ) ) ;
#183 = SURFACE_STYLE_FILL_AREA ( #177 ) ;
#184 = CARTESIAN_POINT ( 'NONE',  ( 108.4852813742385700, 0.0000000000000000000, 0.0000000000000000000 ) ) ;
#185 = PLANE ( 'NONE',  #263 ) ;
#186 = DIRECTION ( 'NONE',  ( 0.0000000000000000000, 0.0000000000000000000, -1.000000000000000000 ) ) ;
#187 = DIRECTION ( 'NONE',  ( 1.000000000000000000, 0.0000000000000000000, 0.0000000000000000000 ) ) ;
#188 = CARTESIAN_POINT ( 'NONE',  ( 0.0000000000000000000, 0.0000000000000000000, 0.0000000000000000000 ) ) ;
#189 = FILL_AREA_STYLE_COLOUR ( '', #195 ) ;
#190 = AXIS2_PLACEMENT_3D ( 'NONE', #184, #266, #265 ) ;
#191 = FILL_AREA_STYLE_COLOUR ( '', #264 ) ;
#192 = DIRECTION ( 'NONE',  ( -1.000000000000000000, -0.0000000000000000000, -0.0000000000000000000 ) ) ;
#193 = VECTOR ( 'NONE', #192, 1000.000000000000000 ) ;
#194 = CARTESIAN_POINT ( 'NONE',  ( 108.4852813742385700, 0.0000000000000000000, 2.000000000000000000 ) ) ;
#195 = COLOUR_RGB ( '',0.9686274509803921600, 1.000000000000000000, 0.9803921568627450600 ) ;
#196 = CARTESIAN_POINT ( 'NONE',  ( 100.0000000000000000, 0.0000000000000000000, 3.000000000000000400 ) ) ;
#197 = CIRCLE ( 'NONE', #253, 3.000000000000000400 ) ;
#198 = DIRECTION ( 'NONE',  ( 0.0000000000000000000, 0.0000000000000000000, -1.000000000000000000 ) ) ;
#199 = DIRECTION ( 'NONE',  ( 1.000000000000000000, 0.0000000000000000000, 0.0000000000000000000 ) ) ;
#200 = CARTESIAN_POINT ( 'NONE',  ( 0.0000000000000000000, 0.0000000000000000000, 0.0000000000000000000 ) ) ;
#201 = LINE ( 'NONE', #194, #193 ) ;
#202 = AXIS2_PLACEMENT_3D ( 'NONE', #200, #199, #198 ) ;
#203 = CIRCLE ( 'NONE', #202, 2.000000000000000000 ) ;
#204 = DIRECTION ( 'NONE',  ( 0.0000000000000000000, 0.0000000000000000000, -1.000000000000000000 ) ) ;
#205 = DIRECTION ( 'NONE',  ( 1.000000000000000000, 0.0000000000000000000, 0.0000000000000000000 ) ) ;
#206 = CARTESIAN_POINT ( 'NONE',  ( 100.0000000000000000, 0.0000000000000000000, 0.0000000000000000000 ) ) ;
#207 =( GEOMETRIC_REPRESENTATION_CONTEXT ( 3 ) GLOBAL_UNCERTAINTY_ASSIGNED_CONTEXT ( ( #255 ) ) GLOBAL_UNIT_ASSIGNED_CONTEXT ( ( #269, #163, #256 ) ) REPRESENTATION_CONTEXT ( 'NONE', 'WORKASPACE' ) );
#208 = CARTESIAN_POINT ( 'NONE',  ( 0.0000000000000000000, 2.449293598294706400E-016, -2.000000000000000000 ) ) ;
#209 =( GEOMETRIC_REPRESENTATION_CONTEXT ( 3 ) GLOBAL_UNCERTAINTY_ASSIGNED_CONTEXT ( ( #210 ) ) GLOBAL_UNIT_ASSIGNED_CONTEXT ( ( #243, #242, #241 ) ) REPRESENTATION_CONTEXT ( 'NONE', 'WORKASPACE' ) );
#210 = UNCERTAINTY_MEASURE_WITH_UNIT (LENGTH_MEASURE( 1.000000000000000100E-005 ), #243, 'distance_accuracy_value', 'NONE');
#211 = LINE ( 'NONE', #272, #280 ) ;
#212 =( NAMED_UNIT ( * ) PLANE_ANGLE_UNIT ( ) SI_UNIT ( $, .RADIAN. ) );
#213 =( LENGTH_UNIT ( ) NAMED_UNIT ( * ) SI_UNIT ( .MILLI., .METRE. ) );
#214 = MECHANICAL_DESIGN_GEOMETRIC_PRESENTATION_REPRESENTATION (  '', ( #216 ), #276 ) ;
#215 = PRESENTATION_LAYER_ASSIGNMENT (  '', '', ( #216 ) ) ;
#216 = STYLED_ITEM ( 'NONE', ( #217 ), #57 ) ;
#217 = PRESENTATION_STYLE_ASSIGNMENT (( #218 ) ) ;
#218 = SURFACE_STYLE_USAGE ( .BOTH. , #219 ) ;
#219 = SURFACE_SIDE_STYLE ('',( #220 ) ) ;
#220 = SURFACE_STYLE_FILL_AREA ( #262 ) ;
#221 =( GEOMETRIC_REPRESENTATION_CONTEXT ( 3 ) GLOBAL_UNCERTAINTY_ASSIGNED_CONTEXT ( ( #222 ) ) GLOBAL_UNIT_ASSIGNED_CONTEXT ( ( #146, #224, #223 ) ) REPRESENTATION_CONTEXT ( 'NONE', 'WORKASPACE' ) );
#222 = UNCERTAINTY_MEASURE_WITH_UNIT (LENGTH_MEASURE( 1.000000000000000100E-005 ), #146, 'distance_accuracy_value', 'NONE');
#223 =( NAMED_UNIT ( * ) SI_UNIT ( $, .STERADIAN. ) SOLID_ANGLE_UNIT ( ) );
#224 =( NAMED_UNIT ( * ) PLANE_ANGLE_UNIT ( ) SI_UNIT ( $, .RADIAN. ) );
#225 = CIRCLE ( 'NONE', #251, 2.000000000000000000 ) ;
#226 = AXIS2_PLACEMENT_3D ( 'NONE', #206, #205, #204 ) ;
#227 = DIRECTION ( 'NONE',  ( -1.000000000000000000, -0.0000000000000000000, -0.0000000000000000000 ) ) ;
#228 =( NAMED_UNIT ( * ) SI_UNIT ( $, .STERADIAN. ) SOLID_ANGLE_UNIT ( ) );
#229 =( NAMED_UNIT ( * ) PLANE_ANGLE_UNIT ( ) SI_UNIT ( $, .RADIAN. ) );
#230 =( LENGTH_UNIT ( ) NAMED_UNIT ( * ) SI_UNIT ( .MILLI., .METRE. ) );
#231 = MECHANICAL_DESIGN_GEOMETRIC_PRESENTATION_REPRESENTATION (  '', ( #233 ), #92 ) ;
#232 = PRESENTATION_LAYER_ASSIGNMENT (  '', '', ( #233 ) ) ;
#233 = STYLED_ITEM ( 'NONE', ( #234 ), #283 ) ;
#234 = PRESENTATION_STYLE_ASSIGNMENT (( #235 ) ) ;
#235 = SURFACE_STYLE_USAGE ( .BOTH. , #236 ) ;
#236 = SURFACE_SIDE_STYLE ('',( #237 ) ) ;
#237 = SURFACE_STYLE_FILL_AREA ( #289 ) ;
#238 = COLOUR_RGB ( '',0.9686274509803921600, 1.000000000000000000, 0.9803921568627450600 ) ;
#239 = DIRECTION ( 'NONE',  ( 1.000000000000000000, 0.0000000000000000000, 0.0000000000000000000 ) ) ;
#240 = DIRECTION ( 'NONE',  ( 0.0000000000000000000, 0.0000000000000000000, 1.000000000000000000 ) ) ;
#241 =( NAMED_UNIT ( * ) SI_UNIT ( $, .STERADIAN. ) SOLID_ANGLE_UNIT ( ) );
#242 =( NAMED_UNIT ( * ) PLANE_ANGLE_UNIT ( ) SI_UNIT ( $, .RADIAN. ) );
#243 =( LENGTH_UNIT ( ) NAMED_UNIT ( * ) SI_UNIT ( .MILLI., .METRE. ) );
#244 = MECHANICAL_DESIGN_GEOMETRIC_PRESENTATION_REPRESENTATION (  '', ( #246 ), #209 ) ;
#245 = PRESENTATION_LAYER_ASSIGNMENT (  '', '', ( #246 ) ) ;
#246 = STYLED_ITEM ( 'NONE', ( #247 ), #55 ) ;
#247 = PRESENTATION_STYLE_ASSIGNMENT (( #248 ) ) ;
#248 = SURFACE_STYLE_USAGE ( .BOTH. , #182 ) ;
#249 = COLOUR_RGB ( '',0.9686274509803921600, 1.000000000000000000, 0.9803921568627450600 ) ;
#250 = FACE_OUTER_BOUND ( 'NONE', #34, .T. ) ;
#251 = AXIS2_PLACEMENT_3D ( 'NONE', #164, #171, #162 ) ;
#252 = FILL_AREA_STYLE_COLOUR ( '', #249 ) ;
#253 = AXIS2_PLACEMENT_3D ( 'NONE', #188, #187, #186 ) ;
#254 = CIRCLE ( 'NONE', #165, 3.000000000000000400 ) ;
#255 = UNCERTAINTY_MEASURE_WITH_UNIT (LENGTH_MEASURE( 1.000000000000000100E-005 ), #269, 'distance_accuracy_value', 'NONE');
#256 =( NAMED_UNIT ( * ) SI_UNIT ( $, .STERADIAN. ) SOLID_ANGLE_UNIT ( ) );
#257 = FACE_OUTER_BOUND ( 'NONE', #2, .T. ) ;
#258 = DIRECTION ( 'NONE',  ( 0.0000000000000000000, 0.0000000000000000000, -1.000000000000000000 ) ) ;
#259 = DIRECTION ( 'NONE',  ( 1.000000000000000000, 0.0000000000000000000, 0.0000000000000000000 ) ) ;
#260 = CARTESIAN_POINT ( 'NONE',  ( 100.0000000000000000, 0.0000000000000000000, 0.0000000000000000000 ) ) ;
#261 = CIRCLE ( 'NONE', #175, 2.000000000000000000 ) ;
#262 = FILL_AREA_STYLE ('',( #191 ) ) ;
#263 = AXIS2_PLACEMENT_3D ( 'NONE', #156, #155, #154 ) ;
#264 = COLOUR_RGB ( '',0.9686274509803921600, 1.000000000000000000, 0.9803921568627450600 ) ;
#265 = DIRECTION ( 'NONE',  ( 0.0000000000000000000, 0.0000000000000000000, 1.000000000000000000 ) ) ;
#266 = DIRECTION ( 'NONE',  ( -1.000000000000000000, -0.0000000000000000000, -0.0000000000000000000 ) ) ;
#267 = FACE_BOUND ( 'NONE', #39, .T. ) ;
#268 = CARTESIAN_POINT ( 'NONE',  ( 100.0000000000000000, 3.673940397442060400E-016, -3.000000000000000400 ) ) ;
#269 =( LENGTH_UNIT ( ) NAMED_UNIT ( * ) SI_UNIT ( .MILLI., .METRE. ) );
#270 = FILL_AREA_STYLE ('',( #252 ) ) ;
#271 = DIRECTION ( 'NONE',  ( 1.000000000000000000, 0.0000000000000000000, 0.0000000000000000000 ) ) ;
#272 = CARTESIAN_POINT ( 'NONE',  ( 108.4852813742385700, 2.449293598294706400E-016, -2.000000000000000000 ) ) ;
#273 = COLOUR_RGB ( '',0.0000000000000000000, 0.5843137254901961100, 0.9058823529411764700 ) ;
#274 = SURFACE_STYLE_FILL_AREA ( #275 ) ;
#275 = FILL_AREA_STYLE ('',( #174 ) ) ;
#276 =( GEOMETRIC_REPRESENTATION_CONTEXT ( 3 ) GLOBAL_UNCERTAINTY_ASSIGNED_CONTEXT ( ( #277 ) ) GLOBAL_UNIT_ASSIGNED_CONTEXT ( ( #213, #212, #278 ) ) REPRESENTATION_CONTEXT ( 'NONE', 'WORKASPACE' ) );
#277 = UNCERTAINTY_MEASURE_WITH_UNIT (LENGTH_MEASURE( 1.000000000000000100E-005 ), #213, 'distance_accuracy_value', 'NONE');
#278 =( NAMED_UNIT ( * ) SI_UNIT ( $, .STERADIAN. ) SOLID_ANGLE_UNIT ( ) );
#279 = DIRECTION ( 'NONE',  ( 0.0000000000000000000, 0.0000000000000000000, -1.000000000000000000 ) ) ;
#280 = VECTOR ( 'NONE', #227, 1000.000000000000000 ) ;
#281 = CARTESIAN_POINT ( 'NONE',  ( 0.0000000000000000000, 0.0000000000000000000, 0.0000000000000000000 ) ) ;
#282 = AXIS2_PLACEMENT_3D ( 'NONE', #281, #240, #239 ) ;
#283 = ADVANCED_BREP_SHAPE_REPRESENTATION ( '', ( #61, #282 ), #284 ) ;
#284 =( GEOMETRIC_REPRESENTATION_CONTEXT ( 3 ) GLOBAL_UNCERTAINTY_ASSIGNED_CONTEXT ( ( #285 ) ) GLOBAL_UNIT_ASSIGNED_CONTEXT ( ( #288, #287, #286 ) ) REPRESENTATION_CONTEXT ( 'NONE', 'WORKASPACE' ) );
#285 = UNCERTAINTY_MEASURE_WITH_UNIT (LENGTH_MEASURE( 1.000000000000000100E-005 ), #288, 'distance_accuracy_value', 'NONE');
#286 =( NAMED_UNIT ( * ) SI_UNIT ( $, .STERADIAN. ) SOLID_ANGLE_UNIT ( ) );
#287 =( NAMED_UNIT ( * ) PLANE_ANGLE_UNIT ( ) SI_UNIT ( $, .RADIAN. ) );
#288 =( LENGTH_UNIT ( ) NAMED_UNIT ( * ) SI_UNIT ( .MILLI., .METRE. ) );
#289 = FILL_AREA_STYLE ('',( #290 ) ) ;
#290 = FILL_AREA_STYLE_COLOUR ( '', #238 ) ;
#291 = DIRECTION ( 'NONE',  ( 0.0000000000000000000, 0.0000000000000000000, -1.000000000000000000 ) ) ;
#292 = DIRECTION ( 'NONE',  ( 1.000000000000000000, 0.0000000000000000000, 0.0000000000000000000 ) ) ;
#293 = CARTESIAN_POINT ( 'NONE',  ( 100.0000000000000000, 0.0000000000000000000, 0.0000000000000000000 ) ) ;
#294 = CIRCLE ( 'NONE', #176, 2.000000000000000000 ) ;
#295 = SHAPE_DEFINITION_REPRESENTATION ( #296, #322 ) ;
#296 = PRODUCT_DEFINITION_SHAPE ( 'NONE', 'NONE',  #299 ) ;
#297 = PRODUCT_RELATED_PRODUCT_CATEGORY ( 'part', '', ( #306 ) ) ;
#298 = PRODUCT_DEFINITION_FORMATION_WITH_SPECIFIED_SOURCE ( 'ANY', '', #306, .NOT_KNOWN. ) ;
#299 = PRODUCT_DEFINITION ( 'UNKNOWN', '', #298, #300 ) ;
#300 = PRODUCT_DEFINITION_CONTEXT ( 'detailed design', #304, 'design' ) ;
#301 = APPLICATION_PROTOCOL_DEFINITION ( 'draft international standard', 'automotive_design', 1998, #304 ) ;
#302 = UNCERTAINTY_MEASURE_WITH_UNIT (LENGTH_MEASURE( 1.000000000000000100E-005 ), #316, 'distance_accuracy_value', 'NONE');
#303 =( NAMED_UNIT ( * ) SI_UNIT ( $, .STERADIAN. ) SOLID_ANGLE_UNIT ( ) );
#304 = APPLICATION_CONTEXT ( 'automotive_design' ) ;
#305 = APPLICATION_CONTEXT ( 'automotive_design' ) ;
#306 = PRODUCT ( 'TU0604C-20.step', 'TU0604C-20.step', '', ( #307 ) ) ;
#307 = PRODUCT_CONTEXT ( 'NONE', #311, 'mechanical' ) ;
#308 = APPLICATION_PROTOCOL_DEFINITION ( 'draft international standard', 'automotive_design', 1998, #311 ) ;
#309 = DIRECTION ( 'NONE',  ( 1.000000000000000000, 0.0000000000000000000, 0.0000000000000000000 ) ) ;
#310 = DIRECTION ( 'NONE',  ( 0.0000000000000000000, 0.0000000000000000000, 1.000000000000000000 ) ) ;
#311 = APPLICATION_CONTEXT ( 'automotive_design' ) ;
#312 = CONTEXT_DEPENDENT_SHAPE_REPRESENTATION ( #336, #314 ) ;
#313 =( GEOMETRIC_REPRESENTATION_CONTEXT ( 3 ) GLOBAL_UNCERTAINTY_ASSIGNED_CONTEXT ( ( #302 ) ) GLOBAL_UNIT_ASSIGNED_CONTEXT ( ( #316, #340, #303 ) ) REPRESENTATION_CONTEXT ( 'NONE', 'WORKASPACE' ) );
#314 = PRODUCT_DEFINITION_SHAPE ( 'NONE', 'NONE',  #341 ) ;
#315 = AXIS2_PLACEMENT_3D ( 'NONE', #321, #310, #309 ) ;
#316 =( LENGTH_UNIT ( ) NAMED_UNIT ( * ) SI_UNIT ( .MILLI., .METRE. ) );
#317 = DIRECTION ( 'NONE',  ( 1.000000000000000000, 0.0000000000000000000, 0.0000000000000000000 ) ) ;
#318 = DIRECTION ( 'NONE',  ( 0.0000000000000000000, 0.0000000000000000000, 1.000000000000000000 ) ) ;
#319 = CARTESIAN_POINT ( 'NONE',  ( 0.0000000000000000000, 0.0000000000000000000, 0.0000000000000000000 ) ) ;
#320 = AXIS2_PLACEMENT_3D ( 'NONE', #319, #318, #317 ) ;
#321 = CARTESIAN_POINT ( 'NONE',  ( 0.0000000000000000000, 0.0000000000000000000, 0.0000000000000000000 ) ) ;
#322 = SHAPE_REPRESENTATION ( 'TU0604C-20.step', ( #323, #320 ), #313 ) ;
#323 = AXIS2_PLACEMENT_3D ( 'NONE', #324, #339, #338 ) ;
#324 = CARTESIAN_POINT ( 'NONE',  ( 0.0000000000000000000, 0.0000000000000000000, 0.0000000000000000000 ) ) ;
#325 = PRODUCT_DEFINITION_SHAPE ( 'NONE', 'NONE',  #329 ) ;
#326 = PRODUCT_RELATED_PRODUCT_CATEGORY ( 'part', '', ( #333 ) ) ;
#327 = PRODUCT_DEFINITION_FORMATION_WITH_SPECIFIED_SOURCE ( 'ANY', '', #333, .NOT_KNOWN. ) ;
#328 = SHAPE_DEFINITION_REPRESENTATION ( #325, #100 ) ;
#329 = PRODUCT_DEFINITION ( 'UNKNOWN', '', #327, #330 ) ;
#330 = PRODUCT_DEFINITION_CONTEXT ( 'detailed design', #332, 'design' ) ;
#331 = APPLICATION_PROTOCOL_DEFINITION ( 'draft international standard', 'automotive_design', 1998, #332 ) ;
#332 = APPLICATION_CONTEXT ( 'automotive_design' ) ;
#333 = PRODUCT ( 'TU0604C-20.step_TU3076 Tube_0604C', 'TU0604C-20.step_TU3076 Tube_0604C', '', ( #334 ) ) ;
#334 = PRODUCT_CONTEXT ( 'NONE', #305, 'mechanical' ) ;
#335 = APPLICATION_PROTOCOL_DEFINITION ( 'draft international standard', 'automotive_design', 1998, #305 ) ;
#336 =( REPRESENTATION_RELATIONSHIP ('NONE','NONE', #322, #100 ) REPRESENTATION_RELATIONSHIP_WITH_TRANSFORMATION ( #337 )SHAPE_REPRESENTATION_RELATIONSHIP( ) );
#337 = ITEM_DEFINED_TRANSFORMATION ( 'NONE', 'NONE', #320,  #282 ) ;
#338 = DIRECTION ( 'NONE',  ( 1.000000000000000000, 0.0000000000000000000, 0.0000000000000000000 ) ) ;
#339 = DIRECTION ( 'NONE',  ( 0.0000000000000000000, 0.0000000000000000000, 1.000000000000000000 ) ) ;
#340 =( NAMED_UNIT ( * ) PLANE_ANGLE_UNIT ( ) SI_UNIT ( $, .RADIAN. ) );
#341 = NEXT_ASSEMBLY_USAGE_OCCURRENCE ( 'NAUO1', ' ', ' ', #299, #329, $ ) ;
ENDSEC;
END-ISO-10303-21;
