ISO-10303-21;
HEADER;
FILE_DESCRIPTION (( 'STEP AP214' ),
    '1' );
FILE_NAME ('TU0604R-20.step.step',
    '2011-10-21T13:36:09',
    ( 'SysAdmin' ),
    ( 'SolidWorks' ),
    'SwSTEP 2.0',
    'SolidWorks 2012',
    '' );
FILE_SCHEMA (( 'AUTOMOTIVE_DESIGN' ));
ENDSEC;

DATA;
#1 = PRODUCT ( 'TU0604R-20.step_TU3076 Tube_0604R', 'TU0604R-20.step_TU3076 Tube_0604R', '', ( #17 ) ) ;
#2 = PRODUCT ( 'TU0604R-20.step', 'TU0604R-20.step', '', ( #9 ) ) ;
#3 =( NAMED_UNIT ( * ) SI_UNIT ( $, .STERADIAN. ) SOLID_ANGLE_UNIT ( ) );
#4 = CARTESIAN_POINT ( 'NONE',  ( 0.0000000000000000000, 0.0000000000000000000, 0.0000000000000000000 ) ) ;
#5 = APPLICATION_PROTOCOL_DEFINITION ( 'draft international standard', 'automotive_design', 1998, #128 ) ;
#6 = SHAPE_DEFINITION_REPRESENTATION ( #298, #132 ) ;
#7 = APPLICATION_PROTOCOL_DEFINITION ( 'draft international standard', 'automotive_design', 1998, #131 ) ;
#8 = CONTEXT_DEPENDENT_SHAPE_REPRESENTATION ( #129, #301 ) ;
#9 = PRODUCT_CONTEXT ( 'NONE', #128, 'mechanical' ) ;
#10 = APPLICATION_PROTOCOL_DEFINITION ( 'draft international standard', 'automotive_design', 1998, #130 ) ;
#11 = APPLICATION_PROTOCOL_DEFINITION ( 'draft international standard', 'automotive_design', 1998, #127 ) ;
#12 = DIRECTION ( 'NONE',  ( 0.0000000000000000000, 0.0000000000000000000, 1.000000000000000000 ) ) ;
#13 =( NAMED_UNIT ( * ) PLANE_ANGLE_UNIT ( ) SI_UNIT ( $, .RADIAN. ) );
#14 = CARTESIAN_POINT ( 'NONE',  ( 0.0000000000000000000, 0.0000000000000000000, 0.0000000000000000000 ) ) ;
#15 = DIRECTION ( 'NONE',  ( 1.000000000000000000, 0.0000000000000000000, 0.0000000000000000000 ) ) ;
#16 = ITEM_DEFINED_TRANSFORMATION ( 'NONE', 'NONE', #289,  #237 ) ;
#17 = PRODUCT_CONTEXT ( 'NONE', #127, 'mechanical' ) ;
#18 = SHAPE_DEFINITION_REPRESENTATION ( #303, #133 ) ;
#19 =( NAMED_UNIT ( * ) SI_UNIT ( $, .STERADIAN. ) SOLID_ANGLE_UNIT ( ) );
#20 = DIRECTION ( 'NONE',  ( 1.000000000000000000, 0.0000000000000000000, 0.0000000000000000000 ) ) ;
#21 = DIRECTION ( 'NONE',  ( 0.0000000000000000000, 0.0000000000000000000, 1.000000000000000000 ) ) ;
#22 = CARTESIAN_POINT ( 'NONE',  ( 0.0000000000000000000, 0.0000000000000000000, 0.0000000000000000000 ) ) ;
#23 =( LENGTH_UNIT ( ) NAMED_UNIT ( * ) SI_UNIT ( .MILLI., .METRE. ) );
#24 = DIRECTION ( 'NONE',  ( 1.000000000000000000, 0.0000000000000000000, 0.0000000000000000000 ) ) ;
#25 =( NAMED_UNIT ( * ) PLANE_ANGLE_UNIT ( ) SI_UNIT ( $, .RADIAN. ) );
#26 = DIRECTION ( 'NONE',  ( 0.0000000000000000000, 0.0000000000000000000, 1.000000000000000000 ) ) ;
#27 = SHAPE_REPRESENTATION_RELATIONSHIP ( 'NONE' , 'NONE' ,  #132, #231 ) ;
#28 = CARTESIAN_POINT ( 'NONE',  ( 0.0000000000000000000, 0.0000000000000000000, 0.0000000000000000000 ) ) ;
#29 = DIRECTION ( 'NONE',  ( 1.000000000000000000, 0.0000000000000000000, 0.0000000000000000000 ) ) ;
#30 =( LENGTH_UNIT ( ) NAMED_UNIT ( * ) SI_UNIT ( .MILLI., .METRE. ) );
#31 =( NAMED_UNIT ( * ) PLANE_ANGLE_UNIT ( ) SI_UNIT ( $, .RADIAN. ) );
#32 =( NAMED_UNIT ( * ) SI_UNIT ( $, .STERADIAN. ) SOLID_ANGLE_UNIT ( ) );
#33 = SURFACE_STYLE_USAGE ( .BOTH. , #39 ) ;
#34 = PRESENTATION_STYLE_ASSIGNMENT (( #33 ) ) ;
#35 = CARTESIAN_POINT ( 'NONE',  ( 0.0000000000000000000, 0.0000000000000000000, 0.0000000000000000000 ) ) ;
#36 = DIRECTION ( 'NONE',  ( 1.000000000000000000, 0.0000000000000000000, 0.0000000000000000000 ) ) ;
#37 =( NAMED_UNIT ( * ) SI_UNIT ( $, .STERADIAN. ) SOLID_ANGLE_UNIT ( ) );
#38 = DIRECTION ( 'NONE',  ( 0.0000000000000000000, 0.0000000000000000000, 1.000000000000000000 ) ) ;
#39 = SURFACE_SIDE_STYLE ('',( #40 ) ) ;
#40 = SURFACE_STYLE_FILL_AREA ( #41 ) ;
#41 = FILL_AREA_STYLE ('',( #42 ) ) ;
#42 = FILL_AREA_STYLE_COLOUR ( '', #313 ) ;
#43 =( NAMED_UNIT ( * ) PLANE_ANGLE_UNIT ( ) SI_UNIT ( $, .RADIAN. ) );
#44 = CARTESIAN_POINT ( 'NONE',  ( 100.0000000000000000, 0.0000000000000000000, 0.0000000000000000000 ) ) ;
#45 = DIRECTION ( 'NONE',  ( 0.0000000000000000000, 0.0000000000000000000, 1.000000000000000000 ) ) ;
#46 = DIRECTION ( 'NONE',  ( -1.000000000000000000, -0.0000000000000000000, -0.0000000000000000000 ) ) ;
#47 = DIRECTION ( 'NONE',  ( 1.000000000000000000, 0.0000000000000000000, 0.0000000000000000000 ) ) ;
#48 = CARTESIAN_POINT ( 'NONE',  ( 108.4852813742385700, 0.0000000000000000000, 0.0000000000000000000 ) ) ;
#49 = DIRECTION ( 'NONE',  ( 0.0000000000000000000, 0.0000000000000000000, -1.000000000000000000 ) ) ;
#50 =( LENGTH_UNIT ( ) NAMED_UNIT ( * ) SI_UNIT ( .MILLI., .METRE. ) );
#51 = PLANE ( 'NONE',  #236 ) ;
#52 = PRESENTATION_STYLE_ASSIGNMENT (( #54 ) ) ;
#53 =( LENGTH_UNIT ( ) NAMED_UNIT ( * ) SI_UNIT ( .MILLI., .METRE. ) );
#54 = SURFACE_STYLE_USAGE ( .BOTH. , #57 ) ;
#55 =( NAMED_UNIT ( * ) SI_UNIT ( $, .STERADIAN. ) SOLID_ANGLE_UNIT ( ) );
#56 =( NAMED_UNIT ( * ) PLANE_ANGLE_UNIT ( ) SI_UNIT ( $, .RADIAN. ) );
#57 = SURFACE_SIDE_STYLE ('',( #59 ) ) ;
#58 = FILL_AREA_STYLE ('',( #62 ) ) ;
#59 = SURFACE_STYLE_FILL_AREA ( #58 ) ;
#60 =( NAMED_UNIT ( * ) SI_UNIT ( $, .STERADIAN. ) SOLID_ANGLE_UNIT ( ) );
#61 = PLANE ( 'NONE',  #271 ) ;
#62 = FILL_AREA_STYLE_COLOUR ( '', #314 ) ;
#63 = DIRECTION ( 'NONE',  ( 0.0000000000000000000, 0.0000000000000000000, -1.000000000000000000 ) ) ;
#64 = DIRECTION ( 'NONE',  ( 1.000000000000000000, 0.0000000000000000000, 0.0000000000000000000 ) ) ;
#65 = CARTESIAN_POINT ( 'NONE',  ( 100.0000000000000000, 0.0000000000000000000, 0.0000000000000000000 ) ) ;
#66 =( NAMED_UNIT ( * ) PLANE_ANGLE_UNIT ( ) SI_UNIT ( $, .RADIAN. ) );
#67 = FILL_AREA_STYLE ('',( #68 ) ) ;
#68 = FILL_AREA_STYLE_COLOUR ( '', #317 ) ;
#69 = DIRECTION ( 'NONE',  ( 0.0000000000000000000, 0.0000000000000000000, -1.000000000000000000 ) ) ;
#70 = SURFACE_STYLE_FILL_AREA ( #67 ) ;
#71 = SURFACE_STYLE_USAGE ( .BOTH. , #73 ) ;
#72 = DIRECTION ( 'NONE',  ( 1.000000000000000000, 0.0000000000000000000, 0.0000000000000000000 ) ) ;
#73 = SURFACE_SIDE_STYLE ('',( #70 ) ) ;
#74 =( LENGTH_UNIT ( ) NAMED_UNIT ( * ) SI_UNIT ( .MILLI., .METRE. ) );
#75 = PRESENTATION_STYLE_ASSIGNMENT (( #71 ) ) ;
#76 = CARTESIAN_POINT ( 'NONE',  ( 100.0000000000000000, 0.0000000000000000000, 0.0000000000000000000 ) ) ;
#77 = CARTESIAN_POINT ( 'NONE',  ( 108.4852813742385700, 0.0000000000000000000, 3.000000000000000400 ) ) ;
#78 = DIRECTION ( 'NONE',  ( -1.000000000000000000, -0.0000000000000000000, -0.0000000000000000000 ) ) ;
#79 =( NAMED_UNIT ( * ) PLANE_ANGLE_UNIT ( ) SI_UNIT ( $, .RADIAN. ) );
#80 =( NAMED_UNIT ( * ) SI_UNIT ( $, .STERADIAN. ) SOLID_ANGLE_UNIT ( ) );
#81 = LINE ( 'NONE', #77, #291 ) ;
#82 = DIRECTION ( 'NONE',  ( 0.0000000000000000000, 0.0000000000000000000, 1.000000000000000000 ) ) ;
#83 = DIRECTION ( 'NONE',  ( -1.000000000000000000, -0.0000000000000000000, -0.0000000000000000000 ) ) ;
#84 =( LENGTH_UNIT ( ) NAMED_UNIT ( * ) SI_UNIT ( .MILLI., .METRE. ) );
#85 = CARTESIAN_POINT ( 'NONE',  ( 108.4852813742385700, 0.0000000000000000000, 0.0000000000000000000 ) ) ;
#86 = DIRECTION ( 'NONE',  ( -1.000000000000000000, -0.0000000000000000000, -0.0000000000000000000 ) ) ;
#87 = CARTESIAN_POINT ( 'NONE',  ( 108.4852813742385700, 3.673940397442060400E-016, -3.000000000000000400 ) ) ;
#88 = FILL_AREA_STYLE_COLOUR ( '', #318 ) ;
#89 = SURFACE_STYLE_FILL_AREA ( #91 ) ;
#90 = LINE ( 'NONE', #87, #294 ) ;
#91 = FILL_AREA_STYLE ('',( #88 ) ) ;
#92 = PRESENTATION_STYLE_ASSIGNMENT (( #93 ) ) ;
#93 = SURFACE_STYLE_USAGE ( .BOTH. , #94 ) ;
#94 = SURFACE_SIDE_STYLE ('',( #89 ) ) ;
#95 = DIRECTION ( 'NONE',  ( 0.0000000000000000000, 0.0000000000000000000, 1.000000000000000000 ) ) ;
#96 = DIRECTION ( 'NONE',  ( -1.000000000000000000, -0.0000000000000000000, -0.0000000000000000000 ) ) ;
#97 =( LENGTH_UNIT ( ) NAMED_UNIT ( * ) SI_UNIT ( .MILLI., .METRE. ) );
#98 =( NAMED_UNIT ( * ) PLANE_ANGLE_UNIT ( ) SI_UNIT ( $, .RADIAN. ) );
#99 =( NAMED_UNIT ( * ) SI_UNIT ( $, .STERADIAN. ) SOLID_ANGLE_UNIT ( ) );
#100 = PRESENTATION_STYLE_ASSIGNMENT (( #102 ) ) ;
#101 = SURFACE_SIDE_STYLE ('',( #110 ) ) ;
#102 = SURFACE_STYLE_USAGE ( .BOTH. , #101 ) ;
#103 = DIRECTION ( 'NONE',  ( 0.0000000000000000000, 0.0000000000000000000, -1.000000000000000000 ) ) ;
#104 = DIRECTION ( 'NONE',  ( 1.000000000000000000, 0.0000000000000000000, 0.0000000000000000000 ) ) ;
#105 = CARTESIAN_POINT ( 'NONE',  ( 0.0000000000000000000, 0.0000000000000000000, 0.0000000000000000000 ) ) ;
#106 = CARTESIAN_POINT ( 'NONE',  ( 108.4852813742385700, 0.0000000000000000000, 0.0000000000000000000 ) ) ;
#107 = CARTESIAN_POINT ( 'NONE',  ( 108.4852813742385700, 2.449293598294706400E-016, -2.000000000000000000 ) ) ;
#108 = DIRECTION ( 'NONE',  ( 0.0000000000000000000, 0.0000000000000000000, -1.000000000000000000 ) ) ;
#109 = LINE ( 'NONE', #107, #274 ) ;
#110 = SURFACE_STYLE_FILL_AREA ( #111 ) ;
#111 = FILL_AREA_STYLE ('',( #112 ) ) ;
#112 = FILL_AREA_STYLE_COLOUR ( '', #316 ) ;
#113 = DIRECTION ( 'NONE',  ( -1.000000000000000000, -0.0000000000000000000, -0.0000000000000000000 ) ) ;
#114 = DIRECTION ( 'NONE',  ( 1.000000000000000000, 0.0000000000000000000, 0.0000000000000000000 ) ) ;
#115 = DIRECTION ( 'NONE',  ( 0.0000000000000000000, 0.0000000000000000000, -1.000000000000000000 ) ) ;
#116 = CARTESIAN_POINT ( 'NONE',  ( 100.0000000000000000, 0.0000000000000000000, 0.0000000000000000000 ) ) ;
#117 =( GEOMETRIC_REPRESENTATION_CONTEXT ( 3 ) GLOBAL_UNCERTAINTY_ASSIGNED_CONTEXT ( ( #227 ) ) GLOBAL_UNIT_ASSIGNED_CONTEXT ( ( #23, #25, #19 ) ) REPRESENTATION_CONTEXT ( 'NONE', 'WORKASPACE' ) );
#118 =( GEOMETRIC_REPRESENTATION_CONTEXT ( 3 ) GLOBAL_UNCERTAINTY_ASSIGNED_CONTEXT ( ( #228 ) ) GLOBAL_UNIT_ASSIGNED_CONTEXT ( ( #30, #31, #32 ) ) REPRESENTATION_CONTEXT ( 'NONE', 'WORKASPACE' ) );
#119 =( GEOMETRIC_REPRESENTATION_CONTEXT ( 3 ) GLOBAL_UNCERTAINTY_ASSIGNED_CONTEXT ( ( #232 ) ) GLOBAL_UNIT_ASSIGNED_CONTEXT ( ( #50, #43, #37 ) ) REPRESENTATION_CONTEXT ( 'NONE', 'WORKASPACE' ) );
#120 =( GEOMETRIC_REPRESENTATION_CONTEXT ( 3 ) GLOBAL_UNCERTAINTY_ASSIGNED_CONTEXT ( ( #229 ) ) GLOBAL_UNIT_ASSIGNED_CONTEXT ( ( #53, #56, #55 ) ) REPRESENTATION_CONTEXT ( 'NONE', 'WORKASPACE' ) );
#121 =( GEOMETRIC_REPRESENTATION_CONTEXT ( 3 ) GLOBAL_UNCERTAINTY_ASSIGNED_CONTEXT ( ( #233 ) ) GLOBAL_UNIT_ASSIGNED_CONTEXT ( ( #74, #66, #60 ) ) REPRESENTATION_CONTEXT ( 'NONE', 'WORKASPACE' ) );
#122 =( GEOMETRIC_REPRESENTATION_CONTEXT ( 3 ) GLOBAL_UNCERTAINTY_ASSIGNED_CONTEXT ( ( #230 ) ) GLOBAL_UNIT_ASSIGNED_CONTEXT ( ( #84, #79, #80 ) ) REPRESENTATION_CONTEXT ( 'NONE', 'WORKASPACE' ) );
#123 =( GEOMETRIC_REPRESENTATION_CONTEXT ( 3 ) GLOBAL_UNCERTAINTY_ASSIGNED_CONTEXT ( ( #226 ) ) GLOBAL_UNIT_ASSIGNED_CONTEXT ( ( #97, #98, #99 ) ) REPRESENTATION_CONTEXT ( 'NONE', 'WORKASPACE' ) );
#124 =( GEOMETRIC_REPRESENTATION_CONTEXT ( 3 ) GLOBAL_UNCERTAINTY_ASSIGNED_CONTEXT ( ( #234 ) ) GLOBAL_UNIT_ASSIGNED_CONTEXT ( ( #134, #13, #3 ) ) REPRESENTATION_CONTEXT ( 'NONE', 'WORKASPACE' ) );
#125 =( GEOMETRIC_REPRESENTATION_CONTEXT ( 3 ) GLOBAL_UNCERTAINTY_ASSIGNED_CONTEXT ( ( #225 ) ) GLOBAL_UNIT_ASSIGNED_CONTEXT ( ( #193, #194, #198 ) ) REPRESENTATION_CONTEXT ( 'NONE', 'WORKASPACE' ) );
#126 =( GEOMETRIC_REPRESENTATION_CONTEXT ( 3 ) GLOBAL_UNCERTAINTY_ASSIGNED_CONTEXT ( ( #235 ) ) GLOBAL_UNIT_ASSIGNED_CONTEXT ( ( #148, #177, #176 ) ) REPRESENTATION_CONTEXT ( 'NONE', 'WORKASPACE' ) );
#127 = APPLICATION_CONTEXT ( 'automotive_design' ) ;
#128 = APPLICATION_CONTEXT ( 'automotive_design' ) ;
#129 =( REPRESENTATION_RELATIONSHIP ('NONE','NONE', #133, #132 ) REPRESENTATION_RELATIONSHIP_WITH_TRANSFORMATION ( #16 )SHAPE_REPRESENTATION_RELATIONSHIP( ) );
#130 = APPLICATION_CONTEXT ( 'automotive_design' ) ;
#131 = APPLICATION_CONTEXT ( 'automotive_design' ) ;
#132 = SHAPE_REPRESENTATION ( 'TU0604R-20.step_TU3076 Tube_0604R', ( #237 ), #119 ) ;
#133 = SHAPE_REPRESENTATION ( 'TU0604R-20.step', ( #259, #289 ), #117 ) ;
#134 =( LENGTH_UNIT ( ) NAMED_UNIT ( * ) SI_UNIT ( .MILLI., .METRE. ) );
#135 = SURFACE_STYLE_USAGE ( .BOTH. , #224 ) ;
#136 = PRESENTATION_STYLE_ASSIGNMENT (( #135 ) ) ;
#137 = FILL_AREA_STYLE_COLOUR ( '', #325 ) ;
#138 = CARTESIAN_POINT ( 'NONE',  ( 100.0000000000000000, 0.0000000000000000000, 3.000000000000000400 ) ) ;
#139 = ORIENTED_EDGE ( 'NONE', *, *, #331, .T. ) ;
#140 = CARTESIAN_POINT ( 'NONE',  ( 0.0000000000000000000, 3.673940397442060400E-016, -3.000000000000000400 ) ) ;
#141 = ORIENTED_EDGE ( 'NONE', *, *, #268, .F. ) ;
#142 = ORIENTED_EDGE ( 'NONE', *, *, #326, .T. ) ;
#143 = CARTESIAN_POINT ( 'NONE',  ( 0.0000000000000000000, 0.0000000000000000000, 0.0000000000000000000 ) ) ;
#144 = DIRECTION ( 'NONE',  ( 0.0000000000000000000, 0.0000000000000000000, -1.000000000000000000 ) ) ;
#145 = DIRECTION ( 'NONE',  ( 0.0000000000000000000, 0.0000000000000000000, -1.000000000000000000 ) ) ;
#146 = ORIENTED_EDGE ( 'NONE', *, *, #335, .F. ) ;
#147 = CARTESIAN_POINT ( 'NONE',  ( 0.0000000000000000000, 0.0000000000000000000, 3.000000000000000400 ) ) ;
#148 =( LENGTH_UNIT ( ) NAMED_UNIT ( * ) SI_UNIT ( .MILLI., .METRE. ) );
#149 = CARTESIAN_POINT ( 'NONE',  ( 0.0000000000000000000, 2.449293598294706400E-016, -2.000000000000000000 ) ) ;
#150 = VERTEX_POINT ( 'NONE', #166 ) ;
#151 = PRESENTATION_STYLE_ASSIGNMENT (( #170 ) ) ;
#152 = VERTEX_POINT ( 'NONE', #149 ) ;
#153 = VERTEX_POINT ( 'NONE', #159 ) ;
#154 = VERTEX_POINT ( 'NONE', #155 ) ;
#155 = CARTESIAN_POINT ( 'NONE',  ( 100.0000000000000000, 3.673940397442060400E-016, -3.000000000000000400 ) ) ;
#156 = ORIENTED_EDGE ( 'NONE', *, *, #333, .F. ) ;
#157 = ORIENTED_EDGE ( 'NONE', *, *, #333, .T. ) ;
#158 = CARTESIAN_POINT ( 'NONE',  ( 100.0000000000000000, 0.0000000000000000000, 2.000000000000000000 ) ) ;
#159 = CARTESIAN_POINT ( 'NONE',  ( 100.0000000000000000, 2.449293598294706400E-016, -2.000000000000000000 ) ) ;
#160 = VERTEX_POINT ( 'NONE', #158 ) ;
#161 = VERTEX_POINT ( 'NONE', #138 ) ;
#162 = EDGE_LOOP ( 'NONE', ( #205, #219, #220, #221 ) ) ;
#163 = EDGE_LOOP ( 'NONE', ( #141, #157, #142, #146 ) ) ;
#164 = EDGE_LOOP ( 'NONE', ( #214, #204 ) ) ;
#165 = EDGE_LOOP ( 'NONE', ( #222, #216 ) ) ;
#166 = CARTESIAN_POINT ( 'NONE',  ( 0.0000000000000000000, 0.0000000000000000000, 2.000000000000000000 ) ) ;
#167 = SURFACE_SIDE_STYLE ('',( #173 ) ) ;
#168 = EDGE_LOOP ( 'NONE', ( #217, #218 ) ) ;
#169 = VERTEX_POINT ( 'NONE', #147 ) ;
#170 = SURFACE_STYLE_USAGE ( .BOTH. , #167 ) ;
#171 = VERTEX_POINT ( 'NONE', #140 ) ;
#172 = EDGE_LOOP ( 'NONE', ( #179, #139, #180, #190 ) ) ;
#173 = SURFACE_STYLE_FILL_AREA ( #175 ) ;
#174 = EDGE_LOOP ( 'NONE', ( #156, #208, #206, #203 ) ) ;
#175 = FILL_AREA_STYLE ('',( #137 ) ) ;
#176 =( NAMED_UNIT ( * ) SI_UNIT ( $, .STERADIAN. ) SOLID_ANGLE_UNIT ( ) );
#177 =( NAMED_UNIT ( * ) PLANE_ANGLE_UNIT ( ) SI_UNIT ( $, .RADIAN. ) );
#178 = DIRECTION ( 'NONE',  ( 0.0000000000000000000, 0.0000000000000000000, -1.000000000000000000 ) ) ;
#179 = ORIENTED_EDGE ( 'NONE', *, *, #336, .T. ) ;
#180 = ORIENTED_EDGE ( 'NONE', *, *, #330, .F. ) ;
#181 = CARTESIAN_POINT ( 'NONE',  ( 100.0000000000000000, 0.0000000000000000000, 0.0000000000000000000 ) ) ;
#182 = DIRECTION ( 'NONE',  ( 1.000000000000000000, 0.0000000000000000000, 0.0000000000000000000 ) ) ;
#183 = DIRECTION ( 'NONE',  ( 1.000000000000000000, 0.0000000000000000000, 0.0000000000000000000 ) ) ;
#184 = SURFACE_STYLE_USAGE ( .BOTH. , #191 ) ;
#185 = PRESENTATION_STYLE_ASSIGNMENT (( #184 ) ) ;
#186 = FILL_AREA_STYLE ('',( #187 ) ) ;
#187 = FILL_AREA_STYLE_COLOUR ( '', #322 ) ;
#188 = SURFACE_STYLE_FILL_AREA ( #186 ) ;
#189 = CARTESIAN_POINT ( 'NONE',  ( 0.0000000000000000000, 0.0000000000000000000, 0.0000000000000000000 ) ) ;
#190 = ORIENTED_EDGE ( 'NONE', *, *, #327, .F. ) ;
#191 = SURFACE_SIDE_STYLE ('',( #188 ) ) ;
#192 = CARTESIAN_POINT ( 'NONE',  ( 108.4852813742385700, 0.0000000000000000000, 0.0000000000000000000 ) ) ;
#193 =( LENGTH_UNIT ( ) NAMED_UNIT ( * ) SI_UNIT ( .MILLI., .METRE. ) );
#194 =( NAMED_UNIT ( * ) PLANE_ANGLE_UNIT ( ) SI_UNIT ( $, .RADIAN. ) );
#195 = DIRECTION ( 'NONE',  ( 0.0000000000000000000, 0.0000000000000000000, 1.000000000000000000 ) ) ;
#196 = DIRECTION ( 'NONE',  ( -1.000000000000000000, -0.0000000000000000000, -0.0000000000000000000 ) ) ;
#197 = DIRECTION ( 'NONE',  ( 1.000000000000000000, 0.0000000000000000000, 0.0000000000000000000 ) ) ;
#198 =( NAMED_UNIT ( * ) SI_UNIT ( $, .STERADIAN. ) SOLID_ANGLE_UNIT ( ) );
#199 = CARTESIAN_POINT ( 'NONE',  ( 0.0000000000000000000, 0.0000000000000000000, 0.0000000000000000000 ) ) ;
#200 = FILL_AREA_STYLE_COLOUR ( '', #337 ) ;
#201 = CARTESIAN_POINT ( 'NONE',  ( 108.4852813742385700, 0.0000000000000000000, 2.000000000000000000 ) ) ;
#202 = DIRECTION ( 'NONE',  ( 0.0000000000000000000, 0.0000000000000000000, -1.000000000000000000 ) ) ;
#203 = ORIENTED_EDGE ( 'NONE', *, *, #307, .T. ) ;
#204 = ORIENTED_EDGE ( 'NONE', *, *, #326, .F. ) ;
#205 = ORIENTED_EDGE ( 'NONE', *, *, #331, .F. ) ;
#206 = ORIENTED_EDGE ( 'NONE', *, *, #335, .T. ) ;
#207 = SURFACE_STYLE_FILL_AREA ( #213 ) ;
#208 = ORIENTED_EDGE ( 'NONE', *, *, #329, .F. ) ;
#209 = EDGE_LOOP ( 'NONE', ( #215, #223 ) ) ;
#210 = LINE ( 'NONE', #201, #295 ) ;
#211 = DIRECTION ( 'NONE',  ( -1.000000000000000000, -0.0000000000000000000, -0.0000000000000000000 ) ) ;
#212 = DIRECTION ( 'NONE',  ( 1.000000000000000000, 0.0000000000000000000, 0.0000000000000000000 ) ) ;
#213 = FILL_AREA_STYLE ('',( #200 ) ) ;
#214 = ORIENTED_EDGE ( 'NONE', *, *, #307, .F. ) ;
#215 = ORIENTED_EDGE ( 'NONE', *, *, #330, .T. ) ;
#216 = ORIENTED_EDGE ( 'NONE', *, *, #268, .T. ) ;
#217 = ORIENTED_EDGE ( 'NONE', *, *, #336, .F. ) ;
#218 = ORIENTED_EDGE ( 'NONE', *, *, #305, .F. ) ;
#219 = ORIENTED_EDGE ( 'NONE', *, *, #305, .T. ) ;
#220 = ORIENTED_EDGE ( 'NONE', *, *, #327, .T. ) ;
#221 = ORIENTED_EDGE ( 'NONE', *, *, #309, .F. ) ;
#222 = ORIENTED_EDGE ( 'NONE', *, *, #329, .T. ) ;
#223 = ORIENTED_EDGE ( 'NONE', *, *, #309, .T. ) ;
#224 = SURFACE_SIDE_STYLE ('',( #207 ) ) ;
#225 = UNCERTAINTY_MEASURE_WITH_UNIT (LENGTH_MEASURE( 1.000000000000000100E-005 ), #193, 'distance_accuracy_value', 'NONE');
#226 = UNCERTAINTY_MEASURE_WITH_UNIT (LENGTH_MEASURE( 1.000000000000000100E-005 ), #97, 'distance_accuracy_value', 'NONE');
#227 = UNCERTAINTY_MEASURE_WITH_UNIT (LENGTH_MEASURE( 1.000000000000000100E-005 ), #23, 'distance_accuracy_value', 'NONE');
#228 = UNCERTAINTY_MEASURE_WITH_UNIT (LENGTH_MEASURE( 1.000000000000000100E-005 ), #30, 'distance_accuracy_value', 'NONE');
#229 = UNCERTAINTY_MEASURE_WITH_UNIT (LENGTH_MEASURE( 1.000000000000000100E-005 ), #53, 'distance_accuracy_value', 'NONE');
#230 = UNCERTAINTY_MEASURE_WITH_UNIT (LENGTH_MEASURE( 1.000000000000000100E-005 ), #84, 'distance_accuracy_value', 'NONE');
#231 = ADVANCED_BREP_SHAPE_REPRESENTATION ( '', ( #299, #237 ), #119 ) ;
#232 = UNCERTAINTY_MEASURE_WITH_UNIT (LENGTH_MEASURE( 1.000000000000000100E-005 ), #50, 'distance_accuracy_value', 'NONE');
#233 = UNCERTAINTY_MEASURE_WITH_UNIT (LENGTH_MEASURE( 1.000000000000000100E-005 ), #74, 'distance_accuracy_value', 'NONE');
#234 = UNCERTAINTY_MEASURE_WITH_UNIT (LENGTH_MEASURE( 1.000000000000000100E-005 ), #134, 'distance_accuracy_value', 'NONE');
#235 = UNCERTAINTY_MEASURE_WITH_UNIT (LENGTH_MEASURE( 1.000000000000000100E-005 ), #148, 'distance_accuracy_value', 'NONE');
#236 = AXIS2_PLACEMENT_3D ( 'NONE', #4, #29, #115 ) ;
#237 = AXIS2_PLACEMENT_3D ( 'NONE', #35, #38, #36 ) ;
#238 = FACE_OUTER_BOUND ( 'NONE', #163, .T. ) ;
#239 = PRESENTATION_LAYER_ASSIGNMENT (  '', '', ( #251 ) ) ;
#240 = PRESENTATION_LAYER_ASSIGNMENT (  '', '', ( #260 ) ) ;
#241 = PRESENTATION_LAYER_ASSIGNMENT (  '', '', ( #276 ) ) ;
#242 = AXIS2_PLACEMENT_3D ( 'NONE', #85, #83, #82 ) ;
#243 = MECHANICAL_DESIGN_GEOMETRIC_PRESENTATION_REPRESENTATION (  '', ( #280 ), #124 ) ;
#244 = MECHANICAL_DESIGN_GEOMETRIC_PRESENTATION_REPRESENTATION (  '', ( #260 ), #123 ) ;
#245 = AXIS2_PLACEMENT_3D ( 'NONE', #44, #47, #49 ) ;
#246 = AXIS2_PLACEMENT_3D ( 'NONE', #181, #183, #178 ) ;
#247 = CYLINDRICAL_SURFACE ( 'NONE', #242, 3.000000000000000400 ) ;
#248 = AXIS2_PLACEMENT_3D ( 'NONE', #76, #72, #69 ) ;
#249 = PRODUCT_DEFINITION_FORMATION_WITH_SPECIFIED_SOURCE ( 'ANY', '', #2, .NOT_KNOWN. ) ;
#250 = FACE_OUTER_BOUND ( 'NONE', #165, .T. ) ;
#251 = STYLED_ITEM ( 'NONE', ( #92 ), #334 ) ;
#252 = FACE_OUTER_BOUND ( 'NONE', #172, .T. ) ;
#253 = CYLINDRICAL_SURFACE ( 'NONE', #281, 2.000000000000000000 ) ;
#254 = MECHANICAL_DESIGN_GEOMETRIC_PRESENTATION_REPRESENTATION (  '', ( #270 ), #126 ) ;
#255 = AXIS2_PLACEMENT_3D ( 'NONE', #199, #197, #202 ) ;
#256 = FACE_OUTER_BOUND ( 'NONE', #162, .T. ) ;
#257 = AXIS2_PLACEMENT_3D ( 'NONE', #28, #26, #24 ) ;
#258 = MECHANICAL_DESIGN_GEOMETRIC_PRESENTATION_REPRESENTATION (  '', ( #288 ), #121 ) ;
#259 = AXIS2_PLACEMENT_3D ( 'NONE', #14, #12, #15 ) ;
#260 = STYLED_ITEM ( 'NONE', ( #100 ), #332 ) ;
#261 = PRESENTATION_LAYER_ASSIGNMENT (  '', '', ( #270 ) ) ;
#262 = STYLED_ITEM ( 'NONE', ( #34 ), #231 ) ;
#263 = FACE_OUTER_BOUND ( 'NONE', #164, .T. ) ;
#264 = MECHANICAL_DESIGN_GEOMETRIC_PRESENTATION_REPRESENTATION (  '', ( #292 ), #120 ) ;
#265 = AXIS2_PLACEMENT_3D ( 'NONE', #143, #212, #145 ) ;
#266 = PRODUCT_DEFINITION_FORMATION_WITH_SPECIFIED_SOURCE ( 'ANY', '', #1, .NOT_KNOWN. ) ;
#267 = CYLINDRICAL_SURFACE ( 'NONE', #287, 3.000000000000000400 ) ;
#268 = EDGE_CURVE ( 'NONE', #154, #161, #315, .T. ) ;
#269 = FACE_BOUND ( 'NONE', #209, .T. ) ;
#270 = STYLED_ITEM ( 'NONE', ( #151 ), #299 ) ;
#271 = AXIS2_PLACEMENT_3D ( 'NONE', #65, #64, #63 ) ;
#272 = AXIS2_PLACEMENT_3D ( 'NONE', #116, #114, #108 ) ;
#273 = AXIS2_PLACEMENT_3D ( 'NONE', #189, #182, #144 ) ;
#274 = VECTOR ( 'NONE', #113, 1000.000000000000000 ) ;
#275 = MECHANICAL_DESIGN_GEOMETRIC_PRESENTATION_REPRESENTATION (  '', ( #276 ), #125 ) ;
#276 = STYLED_ITEM ( 'NONE', ( #185 ), #323 ) ;
#277 = MECHANICAL_DESIGN_GEOMETRIC_PRESENTATION_REPRESENTATION (  '', ( #262 ), #118 ) ;
#278 = CYLINDRICAL_SURFACE ( 'NONE', #285, 2.000000000000000000 ) ;
#279 = CLOSED_SHELL ( 'NONE', ( #339, #334, #323, #328, #332, #338 ) ) ;
#280 = STYLED_ITEM ( 'NONE', ( #136 ), #328 ) ;
#281 = AXIS2_PLACEMENT_3D ( 'NONE', #48, #46, #45 ) ;
#282 = PRESENTATION_LAYER_ASSIGNMENT (  '', '', ( #292 ) ) ;
#283 = PRESENTATION_LAYER_ASSIGNMENT (  '', '', ( #280 ) ) ;
#284 = FACE_OUTER_BOUND ( 'NONE', #174, .T. ) ;
#285 = AXIS2_PLACEMENT_3D ( 'NONE', #106, #96, #95 ) ;
#286 = MECHANICAL_DESIGN_GEOMETRIC_PRESENTATION_REPRESENTATION (  '', ( #251 ), #122 ) ;
#287 = AXIS2_PLACEMENT_3D ( 'NONE', #192, #196, #195 ) ;
#288 = STYLED_ITEM ( 'NONE', ( #75 ), #338 ) ;
#289 = AXIS2_PLACEMENT_3D ( 'NONE', #22, #21, #20 ) ;
#290 = FACE_BOUND ( 'NONE', #168, .T. ) ;
#291 = VECTOR ( 'NONE', #78, 1000.000000000000000 ) ;
#292 = STYLED_ITEM ( 'NONE', ( #52 ), #339 ) ;
#293 = AXIS2_PLACEMENT_3D ( 'NONE', #105, #104, #103 ) ;
#294 = VECTOR ( 'NONE', #86, 1000.000000000000000 ) ;
#295 = VECTOR ( 'NONE', #211, 1000.000000000000000 ) ;
#296 = PRESENTATION_LAYER_ASSIGNMENT (  '', '', ( #262 ) ) ;
#297 = PRESENTATION_LAYER_ASSIGNMENT (  '', '', ( #288 ) ) ;
#298 = PRODUCT_DEFINITION_SHAPE ( 'NONE', 'NONE',  #308 ) ;
#299 = MANIFOLD_SOLID_BREP ( 'Tube', #279 ) ;
#300 = PRODUCT_DEFINITION_CONTEXT ( 'detailed design', #130, 'design' ) ;
#301 = PRODUCT_DEFINITION_SHAPE ( 'NONE', 'NONE',  #341 ) ;
#302 = PRODUCT_DEFINITION_CONTEXT ( 'detailed design', #131, 'design' ) ;
#303 = PRODUCT_DEFINITION_SHAPE ( 'NONE', 'NONE',  #310 ) ;
#304 = CIRCLE ( 'NONE', #265, 2.000000000000000000 ) ;
#305 = EDGE_CURVE ( 'NONE', #153, #160, #340, .T. ) ;
#306 = CIRCLE ( 'NONE', #273, 3.000000000000000400 ) ;
#307 = EDGE_CURVE ( 'NONE', #169, #171, #306, .T. ) ;
#308 = PRODUCT_DEFINITION ( 'UNKNOWN', '', #266, #300 ) ;
#309 = EDGE_CURVE ( 'NONE', #152, #150, #304, .T. ) ;
#310 = PRODUCT_DEFINITION ( 'UNKNOWN', '', #249, #302 ) ;
#311 = PRODUCT_RELATED_PRODUCT_CATEGORY ( 'part', '', ( #2 ) ) ;
#312 = PRODUCT_RELATED_PRODUCT_CATEGORY ( 'part', '', ( #1 ) ) ;
#313 = COLOUR_RGB ( '',1.000000000000000000, 0.1254901960784313700, 0.1607843137254901800 ) ;
#314 = COLOUR_RGB ( '',1.000000000000000000, 0.1254901960784313700, 0.1607843137254901800 ) ;
#315 = CIRCLE ( 'NONE', #245, 3.000000000000000400 ) ;
#316 = COLOUR_RGB ( '',1.000000000000000000, 0.1254901960784313700, 0.1607843137254901800 ) ;
#317 = COLOUR_RGB ( '',1.000000000000000000, 0.1254901960784313700, 0.1607843137254901800 ) ;
#318 = COLOUR_RGB ( '',1.000000000000000000, 0.1254901960784313700, 0.1607843137254901800 ) ;
#319 = CIRCLE ( 'NONE', #248, 2.000000000000000000 ) ;
#320 = CIRCLE ( 'NONE', #293, 2.000000000000000000 ) ;
#321 = CIRCLE ( 'NONE', #272, 3.000000000000000400 ) ;
#322 = COLOUR_RGB ( '',1.000000000000000000, 0.1254901960784313700, 0.1607843137254901800 ) ;
#323 = ADVANCED_FACE ( 'NONE', ( #284 ), #267, .T. ) ;
#324 = CIRCLE ( 'NONE', #255, 3.000000000000000400 ) ;
#325 = COLOUR_RGB ( '',0.0000000000000000000, 0.5843137254901961100, 0.9058823529411764700 ) ;
#326 = EDGE_CURVE ( 'NONE', #171, #169, #324, .T. ) ;
#327 = EDGE_CURVE ( 'NONE', #160, #150, #210, .T. ) ;
#328 = ADVANCED_FACE ( 'NONE', ( #263, #269 ), #51, .F. ) ;
#329 = EDGE_CURVE ( 'NONE', #161, #154, #321, .T. ) ;
#330 = EDGE_CURVE ( 'NONE', #150, #152, #320, .T. ) ;
#331 = EDGE_CURVE ( 'NONE', #153, #152, #109, .T. ) ;
#332 = ADVANCED_FACE ( 'NONE', ( #256 ), #278, .F. ) ;
#333 = EDGE_CURVE ( 'NONE', #154, #171, #90, .T. ) ;
#334 = ADVANCED_FACE ( 'NONE', ( #238 ), #247, .T. ) ;
#335 = EDGE_CURVE ( 'NONE', #161, #169, #81, .T. ) ;
#336 = EDGE_CURVE ( 'NONE', #160, #153, #319, .T. ) ;
#337 = COLOUR_RGB ( '',1.000000000000000000, 0.1254901960784313700, 0.1607843137254901800 ) ;
#338 = ADVANCED_FACE ( 'NONE', ( #290, #250 ), #61, .T. ) ;
#339 = ADVANCED_FACE ( 'NONE', ( #252 ), #253, .F. ) ;
#340 = CIRCLE ( 'NONE', #246, 2.000000000000000000 ) ;
#341 = NEXT_ASSEMBLY_USAGE_OCCURRENCE ( 'NAUO1', ' ', ' ', #310, #308, $ ) ;
ENDSEC;
END-ISO-10303-21;
