ISO-10303-21;
HEADER;
FILE_DESCRIPTION (( 'STEP AP214' ),
    '1' );
FILE_NAME ('TU0805B-20.step.step',
    '2011-10-16T13:08:45',
    ( 'SysAdmin' ),
    ( 'SolidWorks' ),
    'SwSTEP 2.0',
    'SolidWorks 2012',
    '' );
FILE_SCHEMA (( 'AUTOMOTIVE_DESIGN' ));
ENDSEC;

DATA;
#1 = PLANE ( 'NONE',  #2 ) ;
#2 = AXIS2_PLACEMENT_3D ( 'NONE', #75, #71, #115 ) ;
#3 = ORIENTED_EDGE ( 'NONE', *, *, #20, .F. ) ;
#4 = ORIENTED_EDGE ( 'NONE', *, *, #5, .F. ) ;
#5 = EDGE_CURVE ( 'NONE', #6, #8, #15, .T. ) ;
#6 = VERTEX_POINT ( 'NONE', #17 ) ;
#7 = EDGE_LOOP ( 'NONE', ( #11, #9 ) ) ;
#8 = VERTEX_POINT ( 'NONE', #16 ) ;
#9 = ORIENTED_EDGE ( 'NONE', *, *, #125, .F. ) ;
#10 = ADVANCED_FACE ( 'NONE', ( #14, #175 ), #168, .F. ) ;
#11 = ORIENTED_EDGE ( 'NONE', *, *, #25, .F. ) ;
#12 = EDGE_LOOP ( 'NONE', ( #153, #154 ) ) ;
#13 = EDGE_CURVE ( 'NONE', #139, #84, #165, .T. ) ;
#14 = FACE_OUTER_BOUND ( 'NONE', #7, .T. ) ;
#15 = CIRCLE ( 'NONE', #172, 2.500000000000000000 ) ;
#16 = CARTESIAN_POINT ( 'NONE',  ( 0.0000000000000000000, 3.061616997868383100E-016, -2.500000000000000000 ) ) ;
#17 = CARTESIAN_POINT ( 'NONE',  ( 0.0000000000000000000, 0.0000000000000000000, 2.500000000000000000 ) ) ;
#18 = CLOSED_SHELL ( 'NONE', ( #138, #61, #24, #10, #156, #121 ) ) ;
#19 = AXIS2_PLACEMENT_3D ( 'NONE', #193, #192, #191 ) ;
#20 = EDGE_CURVE ( 'NONE', #60, #85, #189, .T. ) ;
#21 = EDGE_CURVE ( 'NONE', #60, #59, #183, .T. ) ;
#22 = ORIENTED_EDGE ( 'NONE', *, *, #20, .T. ) ;
#23 = ORIENTED_EDGE ( 'NONE', *, *, #21, .F. ) ;
#24 = ADVANCED_FACE ( 'NONE', ( #187 ), #179, .T. ) ;
#25 = EDGE_CURVE ( 'NONE', #85, #126, #48, .T. ) ;
#26 = ORIENTED_EDGE ( 'NONE', *, *, #144, .F. ) ;
#27 = ORIENTED_EDGE ( 'NONE', *, *, #13, .T. ) ;
#28 = EDGE_CURVE ( 'NONE', #8, #6, #43, .T. ) ;
#29 = ORIENTED_EDGE ( 'NONE', *, *, #25, .T. ) ;
#30 = FILL_AREA_STYLE ('',( #182 ) ) ;
#31 = CARTESIAN_POINT ( 'NONE',  ( 100.0000000000000000, 0.0000000000000000000, 0.0000000000000000000 ) ) ;
#32 = AXIS2_PLACEMENT_3D ( 'NONE', #55, #151, #150 ) ;
#33 = CARTESIAN_POINT ( 'NONE',  ( 100.0000000000000000, 0.0000000000000000000, 2.500000000000000000 ) ) ;
#34 = DIRECTION ( 'NONE',  ( -1.000000000000000000, -0.0000000000000000000, -0.0000000000000000000 ) ) ;
#35 = SURFACE_STYLE_FILL_AREA ( #30 ) ;
#36 = DIRECTION ( 'NONE',  ( 0.0000000000000000000, 0.0000000000000000000, -1.000000000000000000 ) ) ;
#37 = DIRECTION ( 'NONE',  ( 1.000000000000000000, 0.0000000000000000000, 0.0000000000000000000 ) ) ;
#38 = CARTESIAN_POINT ( 'NONE',  ( 0.0000000000000000000, 0.0000000000000000000, 0.0000000000000000000 ) ) ;
#39 = AXIS2_PLACEMENT_3D ( 'NONE', #38, #37, #36 ) ;
#40 = FACE_OUTER_BOUND ( 'NONE', #79, .T. ) ;
#41 = DIRECTION ( 'NONE',  ( 0.0000000000000000000, 0.0000000000000000000, 1.000000000000000000 ) ) ;
#42 = COLOUR_RGB ( '',0.0000000000000000000, 0.0000000000000000000, 0.0000000000000000000 ) ;
#43 = CIRCLE ( 'NONE', #39, 2.500000000000000000 ) ;
#44 = CARTESIAN_POINT ( 'NONE',  ( 111.3137084989847500, 0.0000000000000000000, 0.0000000000000000000 ) ) ;
#45 = DIRECTION ( 'NONE',  ( 0.0000000000000000000, 0.0000000000000000000, -1.000000000000000000 ) ) ;
#46 = DIRECTION ( 'NONE',  ( 1.000000000000000000, 0.0000000000000000000, 0.0000000000000000000 ) ) ;
#47 = CARTESIAN_POINT ( 'NONE',  ( 0.0000000000000000000, 0.0000000000000000000, 0.0000000000000000000 ) ) ;
#48 = CIRCLE ( 'NONE', #52, 4.000000000000000000 ) ;
#49 = AXIS2_PLACEMENT_3D ( 'NONE', #44, #34, #41 ) ;
#50 = CARTESIAN_POINT ( 'NONE',  ( 100.0000000000000000, 4.898587196589412800E-016, -4.000000000000000000 ) ) ;
#51 = DIRECTION ( 'NONE',  ( 0.0000000000000000000, 0.0000000000000000000, 1.000000000000000000 ) ) ;
#52 = AXIS2_PLACEMENT_3D ( 'NONE', #47, #46, #45 ) ;
#53 = LINE ( 'NONE', #74, #73 ) ;
#54 = CIRCLE ( 'NONE', #32, 4.000000000000000000 ) ;
#55 = CARTESIAN_POINT ( 'NONE',  ( 100.0000000000000000, 0.0000000000000000000, 0.0000000000000000000 ) ) ;
#56 =( GEOMETRIC_REPRESENTATION_CONTEXT ( 3 ) GLOBAL_UNCERTAINTY_ASSIGNED_CONTEXT ( ( #57 ) ) GLOBAL_UNIT_ASSIGNED_CONTEXT ( ( #108, #107, #58 ) ) REPRESENTATION_CONTEXT ( 'NONE', 'WORKASPACE' ) );
#57 = UNCERTAINTY_MEASURE_WITH_UNIT (LENGTH_MEASURE( 1.000000000000000100E-005 ), #108, 'distance_accuracy_value', 'NONE');
#58 =( NAMED_UNIT ( * ) SI_UNIT ( $, .STERADIAN. ) SOLID_ANGLE_UNIT ( ) );
#59 = VERTEX_POINT ( 'NONE', #50 ) ;
#60 = VERTEX_POINT ( 'NONE', #89 ) ;
#61 = ADVANCED_FACE ( 'NONE', ( #40 ), #103, .T. ) ;
#62 =( NAMED_UNIT ( * ) PLANE_ANGLE_UNIT ( ) SI_UNIT ( $, .RADIAN. ) );
#63 =( LENGTH_UNIT ( ) NAMED_UNIT ( * ) SI_UNIT ( .MILLI., .METRE. ) );
#64 = MECHANICAL_DESIGN_GEOMETRIC_PRESENTATION_REPRESENTATION (  '', ( #66 ), #116 ) ;
#65 = PRESENTATION_LAYER_ASSIGNMENT (  '', '', ( #66 ) ) ;
#66 = STYLED_ITEM ( 'NONE', ( #67 ), #121 ) ;
#67 = PRESENTATION_STYLE_ASSIGNMENT (( #68 ) ) ;
#68 = SURFACE_STYLE_USAGE ( .BOTH. , #69 ) ;
#69 = SURFACE_SIDE_STYLE ('',( #76 ) ) ;
#70 = FACE_OUTER_BOUND ( 'NONE', #122, .T. ) ;
#71 = DIRECTION ( 'NONE',  ( 1.000000000000000000, 0.0000000000000000000, 0.0000000000000000000 ) ) ;
#72 = DIRECTION ( 'NONE',  ( -1.000000000000000000, -0.0000000000000000000, -0.0000000000000000000 ) ) ;
#73 = VECTOR ( 'NONE', #72, 1000.000000000000000 ) ;
#74 = CARTESIAN_POINT ( 'NONE',  ( 111.3137084989847500, 0.0000000000000000000, 2.500000000000000000 ) ) ;
#75 = CARTESIAN_POINT ( 'NONE',  ( 100.0000000000000000, 0.0000000000000000000, 0.0000000000000000000 ) ) ;
#76 = SURFACE_STYLE_FILL_AREA ( #77 ) ;
#77 = FILL_AREA_STYLE ('',( #148 ) ) ;
#78 = ORIENTED_EDGE ( 'NONE', *, *, #83, .T. ) ;
#79 = EDGE_LOOP ( 'NONE', ( #143, #145, #88, #3 ) ) ;
#80 = EDGE_CURVE ( 'NONE', #139, #8, #132, .T. ) ;
#81 = EDGE_CURVE ( 'NONE', #59, #60, #54, .T. ) ;
#82 = EDGE_LOOP ( 'NONE', ( #26, #23, #22, #29 ) ) ;
#83 = EDGE_CURVE ( 'NONE', #84, #139, #128, .T. ) ;
#84 = VERTEX_POINT ( 'NONE', #33 ) ;
#85 = VERTEX_POINT ( 'NONE', #152 ) ;
#86 = EDGE_LOOP ( 'NONE', ( #78, #140, #4, #137 ) ) ;
#87 = EDGE_CURVE ( 'NONE', #84, #6, #53, .T. ) ;
#88 = ORIENTED_EDGE ( 'NONE', *, *, #125, .T. ) ;
#89 = CARTESIAN_POINT ( 'NONE',  ( 100.0000000000000000, 0.0000000000000000000, 4.000000000000000000 ) ) ;
#90 = CARTESIAN_POINT ( 'NONE',  ( 111.3137084989847500, 0.0000000000000000000, 0.0000000000000000000 ) ) ;
#91 = DIRECTION ( 'NONE',  ( -1.000000000000000000, -0.0000000000000000000, -0.0000000000000000000 ) ) ;
#92 =( GEOMETRIC_REPRESENTATION_CONTEXT ( 3 ) GLOBAL_UNCERTAINTY_ASSIGNED_CONTEXT ( ( #93 ) ) GLOBAL_UNIT_ASSIGNED_CONTEXT ( ( #96, #95, #94 ) ) REPRESENTATION_CONTEXT ( 'NONE', 'WORKASPACE' ) );
#93 = UNCERTAINTY_MEASURE_WITH_UNIT (LENGTH_MEASURE( 1.000000000000000100E-005 ), #96, 'distance_accuracy_value', 'NONE');
#94 =( NAMED_UNIT ( * ) SI_UNIT ( $, .STERADIAN. ) SOLID_ANGLE_UNIT ( ) );
#95 =( NAMED_UNIT ( * ) PLANE_ANGLE_UNIT ( ) SI_UNIT ( $, .RADIAN. ) );
#96 =( LENGTH_UNIT ( ) NAMED_UNIT ( * ) SI_UNIT ( .MILLI., .METRE. ) );
#97 = MECHANICAL_DESIGN_GEOMETRIC_PRESENTATION_REPRESENTATION (  '', ( #99 ), #92 ) ;
#98 = PRESENTATION_LAYER_ASSIGNMENT (  '', '', ( #99 ) ) ;
#99 = STYLED_ITEM ( 'NONE', ( #100 ), #24 ) ;
#100 = PRESENTATION_STYLE_ASSIGNMENT (( #101 ) ) ;
#101 = SURFACE_STYLE_USAGE ( .BOTH. , #102 ) ;
#102 = SURFACE_SIDE_STYLE ('',( #176 ) ) ;
#103 = CYLINDRICAL_SURFACE ( 'NONE', #49, 4.000000000000000000 ) ;
#104 = COLOUR_RGB ( '',0.0000000000000000000, 0.0000000000000000000, 0.0000000000000000000 ) ;
#105 = DIRECTION ( 'NONE',  ( 0.0000000000000000000, 0.0000000000000000000, -1.000000000000000000 ) ) ;
#106 = DIRECTION ( 'NONE',  ( 1.000000000000000000, 0.0000000000000000000, 0.0000000000000000000 ) ) ;
#107 =( NAMED_UNIT ( * ) PLANE_ANGLE_UNIT ( ) SI_UNIT ( $, .RADIAN. ) );
#108 =( LENGTH_UNIT ( ) NAMED_UNIT ( * ) SI_UNIT ( .MILLI., .METRE. ) );
#109 = MECHANICAL_DESIGN_GEOMETRIC_PRESENTATION_REPRESENTATION (  '', ( #111 ), #56 ) ;
#110 = PRESENTATION_LAYER_ASSIGNMENT (  '', '', ( #111 ) ) ;
#111 = STYLED_ITEM ( 'NONE', ( #112 ), #61 ) ;
#112 = PRESENTATION_STYLE_ASSIGNMENT (( #113 ) ) ;
#113 = SURFACE_STYLE_USAGE ( .BOTH. , #114 ) ;
#114 = SURFACE_SIDE_STYLE ('',( #35 ) ) ;
#115 = DIRECTION ( 'NONE',  ( 0.0000000000000000000, 0.0000000000000000000, -1.000000000000000000 ) ) ;
#116 =( GEOMETRIC_REPRESENTATION_CONTEXT ( 3 ) GLOBAL_UNCERTAINTY_ASSIGNED_CONTEXT ( ( #117 ) ) GLOBAL_UNIT_ASSIGNED_CONTEXT ( ( #63, #62, #118 ) ) REPRESENTATION_CONTEXT ( 'NONE', 'WORKASPACE' ) );
#117 = UNCERTAINTY_MEASURE_WITH_UNIT (LENGTH_MEASURE( 1.000000000000000100E-005 ), #63, 'distance_accuracy_value', 'NONE');
#118 =( NAMED_UNIT ( * ) SI_UNIT ( $, .STERADIAN. ) SOLID_ANGLE_UNIT ( ) );
#119 = EDGE_LOOP ( 'NONE', ( #155, #123 ) ) ;
#120 = ORIENTED_EDGE ( 'NONE', *, *, #28, .F. ) ;
#121 = ADVANCED_FACE ( 'NONE', ( #133, #70 ), #1, .T. ) ;
#122 = EDGE_LOOP ( 'NONE', ( #124, #141 ) ) ;
#123 = ORIENTED_EDGE ( 'NONE', *, *, #13, .F. ) ;
#124 = ORIENTED_EDGE ( 'NONE', *, *, #21, .T. ) ;
#125 = EDGE_CURVE ( 'NONE', #126, #85, #294, .T. ) ;
#126 = VERTEX_POINT ( 'NONE', #297 ) ;
#127 = ORIENTED_EDGE ( 'NONE', *, *, #87, .T. ) ;
#128 = CIRCLE ( 'NONE', #134, 2.500000000000000000 ) ;
#129 = DIRECTION ( 'NONE',  ( -1.000000000000000000, -0.0000000000000000000, -0.0000000000000000000 ) ) ;
#130 = VECTOR ( 'NONE', #129, 1000.000000000000000 ) ;
#131 = CARTESIAN_POINT ( 'NONE',  ( 111.3137084989847500, 3.061616997868383100E-016, -2.500000000000000000 ) ) ;
#132 = LINE ( 'NONE', #131, #130 ) ;
#133 = FACE_BOUND ( 'NONE', #119, .T. ) ;
#134 = AXIS2_PLACEMENT_3D ( 'NONE', #31, #147, #146 ) ;
#135 = MANIFOLD_SOLID_BREP ( 'Tube', #18 ) ;
#136 = AXIS2_PLACEMENT_3D ( 'NONE', #190, #106, #105 ) ;
#137 = ORIENTED_EDGE ( 'NONE', *, *, #87, .F. ) ;
#138 = ADVANCED_FACE ( 'NONE', ( #298 ), #296, .F. ) ;
#139 = VERTEX_POINT ( 'NONE', #312 ) ;
#140 = ORIENTED_EDGE ( 'NONE', *, *, #80, .T. ) ;
#141 = ORIENTED_EDGE ( 'NONE', *, *, #81, .T. ) ;
#142 = EDGE_LOOP ( 'NONE', ( #157, #27, #127, #120 ) ) ;
#143 = ORIENTED_EDGE ( 'NONE', *, *, #81, .F. ) ;
#144 = EDGE_CURVE ( 'NONE', #59, #126, #309, .T. ) ;
#145 = ORIENTED_EDGE ( 'NONE', *, *, #144, .T. ) ;
#146 = DIRECTION ( 'NONE',  ( 0.0000000000000000000, 0.0000000000000000000, -1.000000000000000000 ) ) ;
#147 = DIRECTION ( 'NONE',  ( 1.000000000000000000, 0.0000000000000000000, 0.0000000000000000000 ) ) ;
#148 = FILL_AREA_STYLE_COLOUR ( '', #149 ) ;
#149 = COLOUR_RGB ( '',0.0000000000000000000, 0.0000000000000000000, 0.0000000000000000000 ) ;
#150 = DIRECTION ( 'NONE',  ( 0.0000000000000000000, 0.0000000000000000000, -1.000000000000000000 ) ) ;
#151 = DIRECTION ( 'NONE',  ( 1.000000000000000000, 0.0000000000000000000, 0.0000000000000000000 ) ) ;
#152 = CARTESIAN_POINT ( 'NONE',  ( 0.0000000000000000000, 0.0000000000000000000, 4.000000000000000000 ) ) ;
#153 = ORIENTED_EDGE ( 'NONE', *, *, #5, .T. ) ;
#154 = ORIENTED_EDGE ( 'NONE', *, *, #28, .T. ) ;
#155 = ORIENTED_EDGE ( 'NONE', *, *, #83, .F. ) ;
#156 = ADVANCED_FACE ( 'NONE', ( #276 ), #311, .F. ) ;
#157 = ORIENTED_EDGE ( 'NONE', *, *, #80, .F. ) ;
#158 =( LENGTH_UNIT ( ) NAMED_UNIT ( * ) SI_UNIT ( .MILLI., .METRE. ) );
#159 = MECHANICAL_DESIGN_GEOMETRIC_PRESENTATION_REPRESENTATION (  '', ( #161 ), #196 ) ;
#160 = PRESENTATION_LAYER_ASSIGNMENT (  '', '', ( #161 ) ) ;
#161 = STYLED_ITEM ( 'NONE', ( #162 ), #10 ) ;
#162 = PRESENTATION_STYLE_ASSIGNMENT (( #163 ) ) ;
#163 = SURFACE_STYLE_USAGE ( .BOTH. , #164 ) ;
#164 = SURFACE_SIDE_STYLE ('',( #173 ) ) ;
#165 = CIRCLE ( 'NONE', #195, 2.500000000000000000 ) ;
#166 = COLOUR_RGB ( '',0.0000000000000000000, 0.0000000000000000000, 0.0000000000000000000 ) ;
#167 = FILL_AREA_STYLE_COLOUR ( '', #166 ) ;
#168 = PLANE ( 'NONE',  #19 ) ;
#169 = DIRECTION ( 'NONE',  ( 0.0000000000000000000, 0.0000000000000000000, -1.000000000000000000 ) ) ;
#170 = DIRECTION ( 'NONE',  ( 1.000000000000000000, 0.0000000000000000000, 0.0000000000000000000 ) ) ;
#171 = CARTESIAN_POINT ( 'NONE',  ( 0.0000000000000000000, 0.0000000000000000000, 0.0000000000000000000 ) ) ;
#172 = AXIS2_PLACEMENT_3D ( 'NONE', #171, #170, #169 ) ;
#173 = SURFACE_STYLE_FILL_AREA ( #174 ) ;
#174 = FILL_AREA_STYLE ('',( #167 ) ) ;
#175 = FACE_BOUND ( 'NONE', #12, .T. ) ;
#176 = SURFACE_STYLE_FILL_AREA ( #177 ) ;
#177 = FILL_AREA_STYLE ('',( #178 ) ) ;
#178 = FILL_AREA_STYLE_COLOUR ( '', #104 ) ;
#179 = CYLINDRICAL_SURFACE ( 'NONE', #194, 4.000000000000000000 ) ;
#180 = DIRECTION ( 'NONE',  ( -1.000000000000000000, -0.0000000000000000000, -0.0000000000000000000 ) ) ;
#181 = VECTOR ( 'NONE', #180, 1000.000000000000000 ) ;
#182 = FILL_AREA_STYLE_COLOUR ( '', #42 ) ;
#183 = CIRCLE ( 'NONE', #136, 4.000000000000000000 ) ;
#184 = DIRECTION ( 'NONE',  ( 0.0000000000000000000, 0.0000000000000000000, -1.000000000000000000 ) ) ;
#185 = DIRECTION ( 'NONE',  ( 1.000000000000000000, 0.0000000000000000000, 0.0000000000000000000 ) ) ;
#186 = CARTESIAN_POINT ( 'NONE',  ( 100.0000000000000000, 0.0000000000000000000, 0.0000000000000000000 ) ) ;
#187 = FACE_OUTER_BOUND ( 'NONE', #82, .T. ) ;
#188 = CARTESIAN_POINT ( 'NONE',  ( 111.3137084989847500, 0.0000000000000000000, 4.000000000000000000 ) ) ;
#189 = LINE ( 'NONE', #188, #181 ) ;
#190 = CARTESIAN_POINT ( 'NONE',  ( 100.0000000000000000, 0.0000000000000000000, 0.0000000000000000000 ) ) ;
#191 = DIRECTION ( 'NONE',  ( 0.0000000000000000000, 0.0000000000000000000, -1.000000000000000000 ) ) ;
#192 = DIRECTION ( 'NONE',  ( 1.000000000000000000, 0.0000000000000000000, 0.0000000000000000000 ) ) ;
#193 = CARTESIAN_POINT ( 'NONE',  ( 0.0000000000000000000, 0.0000000000000000000, 0.0000000000000000000 ) ) ;
#194 = AXIS2_PLACEMENT_3D ( 'NONE', #90, #91, #51 ) ;
#195 = AXIS2_PLACEMENT_3D ( 'NONE', #186, #185, #184 ) ;
#196 =( GEOMETRIC_REPRESENTATION_CONTEXT ( 3 ) GLOBAL_UNCERTAINTY_ASSIGNED_CONTEXT ( ( #197 ) ) GLOBAL_UNIT_ASSIGNED_CONTEXT ( ( #158, #199, #198 ) ) REPRESENTATION_CONTEXT ( 'NONE', 'WORKASPACE' ) );
#197 = UNCERTAINTY_MEASURE_WITH_UNIT (LENGTH_MEASURE( 1.000000000000000100E-005 ), #158, 'distance_accuracy_value', 'NONE');
#198 =( NAMED_UNIT ( * ) SI_UNIT ( $, .STERADIAN. ) SOLID_ANGLE_UNIT ( ) );
#199 =( NAMED_UNIT ( * ) PLANE_ANGLE_UNIT ( ) SI_UNIT ( $, .RADIAN. ) );
#200 =( NAMED_UNIT ( * ) PLANE_ANGLE_UNIT ( ) SI_UNIT ( $, .RADIAN. ) );
#201 =( LENGTH_UNIT ( ) NAMED_UNIT ( * ) SI_UNIT ( .MILLI., .METRE. ) );
#202 = FILL_AREA_STYLE ('',( #203 ) ) ;
#203 = FILL_AREA_STYLE_COLOUR ( '', #226 ) ;
#204 = DIRECTION ( 'NONE',  ( 0.0000000000000000000, 0.0000000000000000000, 1.000000000000000000 ) ) ;
#205 = AXIS2_PLACEMENT_3D ( 'NONE', #206, #310, #204 ) ;
#206 = CARTESIAN_POINT ( 'NONE',  ( 111.3137084989847500, 0.0000000000000000000, 0.0000000000000000000 ) ) ;
#207 =( GEOMETRIC_REPRESENTATION_CONTEXT ( 3 ) GLOBAL_UNCERTAINTY_ASSIGNED_CONTEXT ( ( #208 ) ) GLOBAL_UNIT_ASSIGNED_CONTEXT ( ( #211, #210, #209 ) ) REPRESENTATION_CONTEXT ( 'NONE', 'WORKASPACE' ) );
#208 = UNCERTAINTY_MEASURE_WITH_UNIT (LENGTH_MEASURE( 1.000000000000000100E-005 ), #211, 'distance_accuracy_value', 'NONE');
#209 =( NAMED_UNIT ( * ) SI_UNIT ( $, .STERADIAN. ) SOLID_ANGLE_UNIT ( ) );
#210 =( NAMED_UNIT ( * ) PLANE_ANGLE_UNIT ( ) SI_UNIT ( $, .RADIAN. ) );
#211 =( LENGTH_UNIT ( ) NAMED_UNIT ( * ) SI_UNIT ( .MILLI., .METRE. ) );
#212 = MECHANICAL_DESIGN_GEOMETRIC_PRESENTATION_REPRESENTATION (  '', ( #214 ), #207 ) ;
#213 = PRESENTATION_LAYER_ASSIGNMENT (  '', '', ( #214 ) ) ;
#214 = STYLED_ITEM ( 'NONE', ( #299 ), #156 ) ;
#215 = UNCERTAINTY_MEASURE_WITH_UNIT (LENGTH_MEASURE( 1.000000000000000100E-005 ), #218, 'distance_accuracy_value', 'NONE');
#216 =( NAMED_UNIT ( * ) SI_UNIT ( $, .STERADIAN. ) SOLID_ANGLE_UNIT ( ) );
#217 =( NAMED_UNIT ( * ) PLANE_ANGLE_UNIT ( ) SI_UNIT ( $, .RADIAN. ) );
#218 =( LENGTH_UNIT ( ) NAMED_UNIT ( * ) SI_UNIT ( .MILLI., .METRE. ) );
#219 = MECHANICAL_DESIGN_GEOMETRIC_PRESENTATION_REPRESENTATION (  '', ( #221 ), #253 ) ;
#220 = PRESENTATION_LAYER_ASSIGNMENT (  '', '', ( #221 ) ) ;
#221 = STYLED_ITEM ( 'NONE', ( #222 ), #231 ) ;
#222 = PRESENTATION_STYLE_ASSIGNMENT (( #223 ) ) ;
#223 = SURFACE_STYLE_USAGE ( .BOTH. , #224 ) ;
#224 = SURFACE_SIDE_STYLE ('',( #225 ) ) ;
#225 = SURFACE_STYLE_FILL_AREA ( #202 ) ;
#226 = COLOUR_RGB ( '',0.0000000000000000000, 0.0000000000000000000, 0.0000000000000000000 ) ;
#227 = DIRECTION ( 'NONE',  ( 1.000000000000000000, 0.0000000000000000000, 0.0000000000000000000 ) ) ;
#228 = DIRECTION ( 'NONE',  ( 0.0000000000000000000, 0.0000000000000000000, 1.000000000000000000 ) ) ;
#229 = CARTESIAN_POINT ( 'NONE',  ( 0.0000000000000000000, 0.0000000000000000000, 0.0000000000000000000 ) ) ;
#230 = AXIS2_PLACEMENT_3D ( 'NONE', #229, #228, #227 ) ;
#231 = ADVANCED_BREP_SHAPE_REPRESENTATION ( '', ( #135, #230 ), #232 ) ;
#232 =( GEOMETRIC_REPRESENTATION_CONTEXT ( 3 ) GLOBAL_UNCERTAINTY_ASSIGNED_CONTEXT ( ( #233 ) ) GLOBAL_UNIT_ASSIGNED_CONTEXT ( ( #201, #200, #234 ) ) REPRESENTATION_CONTEXT ( 'NONE', 'WORKASPACE' ) );
#233 = UNCERTAINTY_MEASURE_WITH_UNIT (LENGTH_MEASURE( 1.000000000000000100E-005 ), #201, 'distance_accuracy_value', 'NONE');
#234 =( NAMED_UNIT ( * ) SI_UNIT ( $, .STERADIAN. ) SOLID_ANGLE_UNIT ( ) );
#235 =( LENGTH_UNIT ( ) NAMED_UNIT ( * ) SI_UNIT ( .MILLI., .METRE. ) );
#236 = DIRECTION ( 'NONE',  ( 1.000000000000000000, 0.0000000000000000000, 0.0000000000000000000 ) ) ;
#237 = DIRECTION ( 'NONE',  ( 0.0000000000000000000, 0.0000000000000000000, 1.000000000000000000 ) ) ;
#238 = CARTESIAN_POINT ( 'NONE',  ( 0.0000000000000000000, 0.0000000000000000000, 0.0000000000000000000 ) ) ;
#239 = AXIS2_PLACEMENT_3D ( 'NONE', #238, #237, #236 ) ;
#240 = DIRECTION ( 'NONE',  ( 1.000000000000000000, 0.0000000000000000000, 0.0000000000000000000 ) ) ;
#241 = DIRECTION ( 'NONE',  ( 0.0000000000000000000, 0.0000000000000000000, 1.000000000000000000 ) ) ;
#242 = CARTESIAN_POINT ( 'NONE',  ( 0.0000000000000000000, 0.0000000000000000000, 0.0000000000000000000 ) ) ;
#243 = AXIS2_PLACEMENT_3D ( 'NONE', #242, #241, #240 ) ;
#244 = SHAPE_REPRESENTATION ( 'TU0805B-20.step', ( #250, #239 ), #338 ) ;
#245 = DIRECTION ( 'NONE',  ( 1.000000000000000000, 0.0000000000000000000, 0.0000000000000000000 ) ) ;
#246 = CARTESIAN_POINT ( 'NONE',  ( 0.0000000000000000000, 0.0000000000000000000, 0.0000000000000000000 ) ) ;
#247 = DIRECTION ( 'NONE',  ( 0.0000000000000000000, 0.0000000000000000000, 1.000000000000000000 ) ) ;
#248 = APPLICATION_CONTEXT ( 'automotive_design' ) ;
#249 =( REPRESENTATION_RELATIONSHIP ('NONE','NONE', #244, #252 ) REPRESENTATION_RELATIONSHIP_WITH_TRANSFORMATION ( #290 )SHAPE_REPRESENTATION_RELATIONSHIP( ) );
#250 = AXIS2_PLACEMENT_3D ( 'NONE', #246, #247, #245 ) ;
#251 = SHAPE_REPRESENTATION_RELATIONSHIP ( 'NONE' , 'NONE' ,  #252, #231 ) ;
#252 = SHAPE_REPRESENTATION ( 'TU0805B-20.step_TU3076 Tube_0805B', ( #230 ), #232 ) ;
#253 =( GEOMETRIC_REPRESENTATION_CONTEXT ( 3 ) GLOBAL_UNCERTAINTY_ASSIGNED_CONTEXT ( ( #215 ) ) GLOBAL_UNIT_ASSIGNED_CONTEXT ( ( #218, #217, #216 ) ) REPRESENTATION_CONTEXT ( 'NONE', 'WORKASPACE' ) );
#254 = MECHANICAL_DESIGN_GEOMETRIC_PRESENTATION_REPRESENTATION (  '', ( #256 ), #317 ) ;
#255 = PRESENTATION_LAYER_ASSIGNMENT (  '', '', ( #256 ) ) ;
#256 = STYLED_ITEM ( 'NONE', ( #257 ), #138 ) ;
#257 = PRESENTATION_STYLE_ASSIGNMENT (( #258 ) ) ;
#258 = SURFACE_STYLE_USAGE ( .BOTH. , #259 ) ;
#259 = SURFACE_SIDE_STYLE ('',( #260 ) ) ;
#260 = SURFACE_STYLE_FILL_AREA ( #261 ) ;
#261 = FILL_AREA_STYLE ('',( #277 ) ) ;
#262 = COLOUR_RGB ( '',0.0000000000000000000, 0.0000000000000000000, 0.0000000000000000000 ) ;
#263 =( GEOMETRIC_REPRESENTATION_CONTEXT ( 3 ) GLOBAL_UNCERTAINTY_ASSIGNED_CONTEXT ( ( #264 ) ) GLOBAL_UNIT_ASSIGNED_CONTEXT ( ( #267, #266, #265 ) ) REPRESENTATION_CONTEXT ( 'NONE', 'WORKASPACE' ) );
#264 = UNCERTAINTY_MEASURE_WITH_UNIT (LENGTH_MEASURE( 1.000000000000000100E-005 ), #267, 'distance_accuracy_value', 'NONE');
#265 =( NAMED_UNIT ( * ) SI_UNIT ( $, .STERADIAN. ) SOLID_ANGLE_UNIT ( ) );
#266 =( NAMED_UNIT ( * ) PLANE_ANGLE_UNIT ( ) SI_UNIT ( $, .RADIAN. ) );
#267 =( LENGTH_UNIT ( ) NAMED_UNIT ( * ) SI_UNIT ( .MILLI., .METRE. ) );
#268 = MECHANICAL_DESIGN_GEOMETRIC_PRESENTATION_REPRESENTATION (  '', ( #270 ), #263 ) ;
#269 = PRESENTATION_LAYER_ASSIGNMENT (  '', '', ( #270 ) ) ;
#270 = STYLED_ITEM ( 'NONE', ( #271 ), #135 ) ;
#271 = PRESENTATION_STYLE_ASSIGNMENT (( #272 ) ) ;
#272 = SURFACE_STYLE_USAGE ( .BOTH. , #273 ) ;
#273 = SURFACE_SIDE_STYLE ('',( #274 ) ) ;
#274 = SURFACE_STYLE_FILL_AREA ( #275 ) ;
#275 = FILL_AREA_STYLE ('',( #278 ) ) ;
#276 = FACE_OUTER_BOUND ( 'NONE', #142, .T. ) ;
#277 = FILL_AREA_STYLE_COLOUR ( '', #262 ) ;
#278 = FILL_AREA_STYLE_COLOUR ( '', #295 ) ;
#279 = DIRECTION ( 'NONE',  ( 0.0000000000000000000, 0.0000000000000000000, -1.000000000000000000 ) ) ;
#280 = PRODUCT_DEFINITION_SHAPE ( 'NONE', 'NONE',  #283 ) ;
#281 = PRODUCT_RELATED_PRODUCT_CATEGORY ( 'part', '', ( #287 ) ) ;
#282 = PRODUCT_DEFINITION_FORMATION_WITH_SPECIFIED_SOURCE ( 'ANY', '', #287, .NOT_KNOWN. ) ;
#283 = PRODUCT_DEFINITION ( 'UNKNOWN', '', #282, #284 ) ;
#284 = PRODUCT_DEFINITION_CONTEXT ( 'detailed design', #286, 'design' ) ;
#285 = APPLICATION_PROTOCOL_DEFINITION ( 'draft international standard', 'automotive_design', 1998, #286 ) ;
#286 = APPLICATION_CONTEXT ( 'automotive_design' ) ;
#287 = PRODUCT ( 'TU0805B-20.step', 'TU0805B-20.step', '', ( #288 ) ) ;
#288 = PRODUCT_CONTEXT ( 'NONE', #248, 'mechanical' ) ;
#289 = APPLICATION_PROTOCOL_DEFINITION ( 'draft international standard', 'automotive_design', 1998, #248 ) ;
#290 = ITEM_DEFINED_TRANSFORMATION ( 'NONE', 'NONE', #239,  #230 ) ;
#291 = DIRECTION ( 'NONE',  ( 1.000000000000000000, 0.0000000000000000000, 0.0000000000000000000 ) ) ;
#292 = CARTESIAN_POINT ( 'NONE',  ( 0.0000000000000000000, 0.0000000000000000000, 0.0000000000000000000 ) ) ;
#293 = AXIS2_PLACEMENT_3D ( 'NONE', #292, #291, #279 ) ;
#294 = CIRCLE ( 'NONE', #293, 4.000000000000000000 ) ;
#295 = COLOUR_RGB ( '',0.0000000000000000000, 0.5843137254901961100, 0.9058823529411764700 ) ;
#296 = CYLINDRICAL_SURFACE ( 'NONE', #316, 2.500000000000000000 ) ;
#297 = CARTESIAN_POINT ( 'NONE',  ( 0.0000000000000000000, 4.898587196589412800E-016, -4.000000000000000000 ) ) ;
#298 = FACE_OUTER_BOUND ( 'NONE', #86, .T. ) ;
#299 = PRESENTATION_STYLE_ASSIGNMENT (( #300 ) ) ;
#300 = SURFACE_STYLE_USAGE ( .BOTH. , #301 ) ;
#301 = SURFACE_SIDE_STYLE ('',( #302 ) ) ;
#302 = SURFACE_STYLE_FILL_AREA ( #303 ) ;
#303 = FILL_AREA_STYLE ('',( #305 ) ) ;
#304 = COLOUR_RGB ( '',0.0000000000000000000, 0.0000000000000000000, 0.0000000000000000000 ) ;
#305 = FILL_AREA_STYLE_COLOUR ( '', #304 ) ;
#306 = DIRECTION ( 'NONE',  ( -1.000000000000000000, -0.0000000000000000000, -0.0000000000000000000 ) ) ;
#307 = VECTOR ( 'NONE', #306, 1000.000000000000000 ) ;
#308 = CARTESIAN_POINT ( 'NONE',  ( 111.3137084989847500, 4.898587196589412800E-016, -4.000000000000000000 ) ) ;
#309 = LINE ( 'NONE', #308, #307 ) ;
#310 = DIRECTION ( 'NONE',  ( -1.000000000000000000, -0.0000000000000000000, -0.0000000000000000000 ) ) ;
#311 = CYLINDRICAL_SURFACE ( 'NONE', #205, 2.500000000000000000 ) ;
#312 = CARTESIAN_POINT ( 'NONE',  ( 100.0000000000000000, 3.061616997868383100E-016, -2.500000000000000000 ) ) ;
#313 = DIRECTION ( 'NONE',  ( 0.0000000000000000000, 0.0000000000000000000, 1.000000000000000000 ) ) ;
#314 = DIRECTION ( 'NONE',  ( -1.000000000000000000, -0.0000000000000000000, -0.0000000000000000000 ) ) ;
#315 = CARTESIAN_POINT ( 'NONE',  ( 111.3137084989847500, 0.0000000000000000000, 0.0000000000000000000 ) ) ;
#316 = AXIS2_PLACEMENT_3D ( 'NONE', #315, #314, #313 ) ;
#317 =( GEOMETRIC_REPRESENTATION_CONTEXT ( 3 ) GLOBAL_UNCERTAINTY_ASSIGNED_CONTEXT ( ( #318 ) ) GLOBAL_UNIT_ASSIGNED_CONTEXT ( ( #321, #320, #319 ) ) REPRESENTATION_CONTEXT ( 'NONE', 'WORKASPACE' ) );
#318 = UNCERTAINTY_MEASURE_WITH_UNIT (LENGTH_MEASURE( 1.000000000000000100E-005 ), #321, 'distance_accuracy_value', 'NONE');
#319 =( NAMED_UNIT ( * ) SI_UNIT ( $, .STERADIAN. ) SOLID_ANGLE_UNIT ( ) );
#320 =( NAMED_UNIT ( * ) PLANE_ANGLE_UNIT ( ) SI_UNIT ( $, .RADIAN. ) );
#321 =( LENGTH_UNIT ( ) NAMED_UNIT ( * ) SI_UNIT ( .MILLI., .METRE. ) );
#322 = PRODUCT_DEFINITION_SHAPE ( 'NONE', 'NONE',  #325 ) ;
#323 = PRODUCT_RELATED_PRODUCT_CATEGORY ( 'part', '', ( #329 ) ) ;
#324 = PRODUCT_DEFINITION_FORMATION_WITH_SPECIFIED_SOURCE ( 'ANY', '', #329, .NOT_KNOWN. ) ;
#325 = PRODUCT_DEFINITION ( 'UNKNOWN', '', #324, #326 ) ;
#326 = PRODUCT_DEFINITION_CONTEXT ( 'detailed design', #328, 'design' ) ;
#327 = APPLICATION_PROTOCOL_DEFINITION ( 'draft international standard', 'automotive_design', 1998, #328 ) ;
#328 = APPLICATION_CONTEXT ( 'automotive_design' ) ;
#329 = PRODUCT ( 'TU0805B-20.step_TU3076 Tube_0805B', 'TU0805B-20.step_TU3076 Tube_0805B', '', ( #330 ) ) ;
#330 = PRODUCT_CONTEXT ( 'NONE', #333, 'mechanical' ) ;
#331 = APPLICATION_PROTOCOL_DEFINITION ( 'draft international standard', 'automotive_design', 1998, #333 ) ;
#332 = PRODUCT_DEFINITION_SHAPE ( 'NONE', 'NONE',  #341 ) ;
#333 = APPLICATION_CONTEXT ( 'automotive_design' ) ;
#334 = SHAPE_DEFINITION_REPRESENTATION ( #280, #244 ) ;
#335 = SHAPE_DEFINITION_REPRESENTATION ( #322, #252 ) ;
#336 = CONTEXT_DEPENDENT_SHAPE_REPRESENTATION ( #249, #332 ) ;
#337 =( NAMED_UNIT ( * ) SI_UNIT ( $, .STERADIAN. ) SOLID_ANGLE_UNIT ( ) );
#338 =( GEOMETRIC_REPRESENTATION_CONTEXT ( 3 ) GLOBAL_UNCERTAINTY_ASSIGNED_CONTEXT ( ( #339 ) ) GLOBAL_UNIT_ASSIGNED_CONTEXT ( ( #235, #340, #337 ) ) REPRESENTATION_CONTEXT ( 'NONE', 'WORKASPACE' ) );
#339 = UNCERTAINTY_MEASURE_WITH_UNIT (LENGTH_MEASURE( 1.000000000000000100E-005 ), #235, 'distance_accuracy_value', 'NONE');
#340 =( NAMED_UNIT ( * ) PLANE_ANGLE_UNIT ( ) SI_UNIT ( $, .RADIAN. ) );
#341 = NEXT_ASSEMBLY_USAGE_OCCURRENCE ( 'NAUO1', ' ', ' ', #283, #325, $ ) ;
ENDSEC;
END-ISO-10303-21;
