ISO-10303-21;
HEADER;
FILE_DESCRIPTION (( 'STEP AP214' ),
    '1' );
FILE_NAME ('TU0805BU-100.step.step',
    '2012-05-15T13:24:03',
    ( 'SysAdmin' ),
    ( 'SolidWorks' ),
    'SwSTEP 2.0',
    'SolidWorks 2012',
    '' );
FILE_SCHEMA (( 'AUTOMOTIVE_DESIGN' ));
ENDSEC;

DATA;
#1 =( NAMED_UNIT ( * ) SI_UNIT ( $, .STERADIAN. ) SOLID_ANGLE_UNIT ( ) );
#2 =( NAMED_UNIT ( * ) PLANE_ANGLE_UNIT ( ) SI_UNIT ( $, .RADIAN. ) );
#3 = COLOUR_RGB ( '',0.2470588235294117800, 0.6470588235294118000, 1.000000000000000000 ) ;
#4 = ADVANCED_FACE ( 'NONE', ( #43 ), #87, .T. ) ;
#5 = EDGE_CURVE ( 'NONE', #48, #20, #94, .T. ) ;
#6 = ORIENTED_EDGE ( 'NONE', *, *, #64, .F. ) ;
#7 = ORIENTED_EDGE ( 'NONE', *, *, #55, .T. ) ;
#8 = ORIENTED_EDGE ( 'NONE', *, *, #5, .T. ) ;
#9 = ORIENTED_EDGE ( 'NONE', *, *, #23, .T. ) ;
#10 = EDGE_LOOP ( 'NONE', ( #27, #77, #76, #60 ) ) ;
#11 = ORIENTED_EDGE ( 'NONE', *, *, #29, .T. ) ;
#12 = DIRECTION ( 'NONE',  ( 0.0000000000000000000, 0.0000000000000000000, 1.000000000000000000 ) ) ;
#13 = DIRECTION ( 'NONE',  ( -1.000000000000000000, -0.0000000000000000000, -0.0000000000000000000 ) ) ;
#14 = ORIENTED_EDGE ( 'NONE', *, *, #65, .T. ) ;
#15 = ADVANCED_BREP_SHAPE_REPRESENTATION ( '', ( #81, #45 ), #16 ) ;
#16 =( GEOMETRIC_REPRESENTATION_CONTEXT ( 3 ) GLOBAL_UNCERTAINTY_ASSIGNED_CONTEXT ( ( #237 ) ) GLOBAL_UNIT_ASSIGNED_CONTEXT ( ( #277, #239, #238 ) ) REPRESENTATION_CONTEXT ( 'NONE', 'WORKASPACE' ) );
#17 = ORIENTED_EDGE ( 'NONE', *, *, #50, .F. ) ;
#18 = ADVANCED_FACE ( 'NONE', ( #139, #123 ), #105, .T. ) ;
#19 = EDGE_LOOP ( 'NONE', ( #59, #7, #9, #17 ) ) ;
#20 = VERTEX_POINT ( 'NONE', #119 ) ;
#21 = EDGE_CURVE ( 'NONE', #25, #73, #111, .T. ) ;
#22 = EDGE_LOOP ( 'NONE', ( #6, #66, #30, #8 ) ) ;
#23 = EDGE_CURVE ( 'NONE', #71, #25, #90, .T. ) ;
#24 = EDGE_LOOP ( 'NONE', ( #51, #53 ) ) ;
#25 = VERTEX_POINT ( 'NONE', #140 ) ;
#26 = ORIENTED_EDGE ( 'NONE', *, *, #65, .F. ) ;
#27 = ORIENTED_EDGE ( 'NONE', *, *, #70, .T. ) ;
#28 = EDGE_CURVE ( 'NONE', #47, #48, #98, .T. ) ;
#29 = EDGE_CURVE ( 'NONE', #47, #74, #128, .T. ) ;
#30 = ORIENTED_EDGE ( 'NONE', *, *, #28, .T. ) ;
#31 = SURFACE_STYLE_FILL_AREA ( #32 ) ;
#32 = FILL_AREA_STYLE ('',( #83 ) ) ;
#33 = DIRECTION ( 'NONE',  ( 1.000000000000000000, 0.0000000000000000000, 0.0000000000000000000 ) ) ;
#34 = CARTESIAN_POINT ( 'NONE',  ( 0.0000000000000000000, 0.0000000000000000000, 0.0000000000000000000 ) ) ;
#35 = EDGE_LOOP ( 'NONE', ( #11, #14 ) ) ;
#36 =( LENGTH_UNIT ( ) NAMED_UNIT ( * ) SI_UNIT ( .MILLI., .METRE. ) );
#37 = MECHANICAL_DESIGN_GEOMETRIC_PRESENTATION_REPRESENTATION (  '', ( #39 ), #96 ) ;
#38 = PRESENTATION_LAYER_ASSIGNMENT (  '', '', ( #39 ) ) ;
#39 = STYLED_ITEM ( 'NONE', ( #40 ), #4 ) ;
#40 = PRESENTATION_STYLE_ASSIGNMENT (( #41 ) ) ;
#41 = SURFACE_STYLE_USAGE ( .BOTH. , #42 ) ;
#42 = SURFACE_SIDE_STYLE ('',( #31 ) ) ;
#43 = FACE_OUTER_BOUND ( 'NONE', #22, .T. ) ;
#44 = CARTESIAN_POINT ( 'NONE',  ( 0.0000000000000000000, 0.0000000000000000000, 0.0000000000000000000 ) ) ;
#45 = AXIS2_PLACEMENT_3D ( 'NONE', #44, #101, #137 ) ;
#46 = VERTEX_POINT ( 'NONE', #210 ) ;
#47 = VERTEX_POINT ( 'NONE', #167 ) ;
#48 = VERTEX_POINT ( 'NONE', #146 ) ;
#49 = ADVANCED_FACE ( 'NONE', ( #145, #213 ), #228, .F. ) ;
#50 = EDGE_CURVE ( 'NONE', #73, #25, #205, .T. ) ;
#51 = ORIENTED_EDGE ( 'NONE', *, *, #5, .F. ) ;
#52 = EDGE_LOOP ( 'NONE', ( #56, #69 ) ) ;
#53 = ORIENTED_EDGE ( 'NONE', *, *, #68, .F. ) ;
#54 = ORIENTED_EDGE ( 'NONE', *, *, #70, .F. ) ;
#55 = EDGE_CURVE ( 'NONE', #46, #71, #208, .T. ) ;
#56 = ORIENTED_EDGE ( 'NONE', *, *, #21, .T. ) ;
#57 = ADVANCED_FACE ( 'NONE', ( #149 ), #236, .F. ) ;
#58 = ORIENTED_EDGE ( 'NONE', *, *, #55, .F. ) ;
#59 = ORIENTED_EDGE ( 'NONE', *, *, #78, .F. ) ;
#60 = ORIENTED_EDGE ( 'NONE', *, *, #23, .F. ) ;
#61 = ORIENTED_EDGE ( 'NONE', *, *, #28, .F. ) ;
#62 = ADVANCED_FACE ( 'NONE', ( #199 ), #229, .T. ) ;
#63 = ORIENTED_EDGE ( 'NONE', *, *, #64, .T. ) ;
#64 = EDGE_CURVE ( 'NONE', #74, #20, #188, .T. ) ;
#65 = EDGE_CURVE ( 'NONE', #74, #47, #180, .T. ) ;
#66 = ORIENTED_EDGE ( 'NONE', *, *, #29, .F. ) ;
#67 = ORIENTED_EDGE ( 'NONE', *, *, #68, .T. ) ;
#68 = EDGE_CURVE ( 'NONE', #20, #48, #91, .T. ) ;
#69 = ORIENTED_EDGE ( 'NONE', *, *, #50, .T. ) ;
#70 = EDGE_CURVE ( 'NONE', #71, #46, #275, .T. ) ;
#71 = VERTEX_POINT ( 'NONE', #282 ) ;
#72 = AXIS2_PLACEMENT_3D ( 'NONE', #34, #33, #100 ) ;
#73 = VERTEX_POINT ( 'NONE', #286 ) ;
#74 = VERTEX_POINT ( 'NONE', #281 ) ;
#75 = ADVANCED_FACE ( 'NONE', ( #278 ), #287, .F. ) ;
#76 = ORIENTED_EDGE ( 'NONE', *, *, #21, .F. ) ;
#77 = ORIENTED_EDGE ( 'NONE', *, *, #78, .T. ) ;
#78 = EDGE_CURVE ( 'NONE', #46, #73, #255, .T. ) ;
#79 = EDGE_LOOP ( 'NONE', ( #26, #63, #67, #61 ) ) ;
#80 = EDGE_LOOP ( 'NONE', ( #54, #58 ) ) ;
#81 = MANIFOLD_SOLID_BREP ( 'Tube', #82 ) ;
#82 = CLOSED_SHELL ( 'NONE', ( #75, #62, #4, #49, #57, #18 ) ) ;
#83 = FILL_AREA_STYLE_COLOUR ( '', #3 ) ;
#84 = CARTESIAN_POINT ( 'NONE',  ( 111.3137084989847500, 0.0000000000000000000, 2.500000000000000000 ) ) ;
#85 = CARTESIAN_POINT ( 'NONE',  ( 111.3137084989847500, 0.0000000000000000000, 0.0000000000000000000 ) ) ;
#86 = DIRECTION ( 'NONE',  ( -1.000000000000000000, -0.0000000000000000000, -0.0000000000000000000 ) ) ;
#87 = CYLINDRICAL_SURFACE ( 'NONE', #92, 4.000000000000000000 ) ;
#88 = DIRECTION ( 'NONE',  ( 1.000000000000000000, 0.0000000000000000000, 0.0000000000000000000 ) ) ;
#89 = CARTESIAN_POINT ( 'NONE',  ( 0.0000000000000000000, 0.0000000000000000000, 0.0000000000000000000 ) ) ;
#90 = LINE ( 'NONE', #84, #93 ) ;
#91 = CIRCLE ( 'NONE', #95, 4.000000000000000000 ) ;
#92 = AXIS2_PLACEMENT_3D ( 'NONE', #85, #13, #12 ) ;
#93 = VECTOR ( 'NONE', #86, 1000.000000000000000 ) ;
#94 = CIRCLE ( 'NONE', #72, 4.000000000000000000 ) ;
#95 = AXIS2_PLACEMENT_3D ( 'NONE', #89, #88, #99 ) ;
#96 =( GEOMETRIC_REPRESENTATION_CONTEXT ( 3 ) GLOBAL_UNCERTAINTY_ASSIGNED_CONTEXT ( ( #97 ) ) GLOBAL_UNIT_ASSIGNED_CONTEXT ( ( #36, #2, #1 ) ) REPRESENTATION_CONTEXT ( 'NONE', 'WORKASPACE' ) );
#97 = UNCERTAINTY_MEASURE_WITH_UNIT (LENGTH_MEASURE( 1.000000000000000100E-005 ), #36, 'distance_accuracy_value', 'NONE');
#98 = LINE ( 'NONE', #104, #103 ) ;
#99 = DIRECTION ( 'NONE',  ( 0.0000000000000000000, 0.0000000000000000000, -1.000000000000000000 ) ) ;
#100 = DIRECTION ( 'NONE',  ( 0.0000000000000000000, 0.0000000000000000000, -1.000000000000000000 ) ) ;
#101 = DIRECTION ( 'NONE',  ( 0.0000000000000000000, 0.0000000000000000000, 1.000000000000000000 ) ) ;
#102 = DIRECTION ( 'NONE',  ( -1.000000000000000000, -0.0000000000000000000, -0.0000000000000000000 ) ) ;
#103 = VECTOR ( 'NONE', #102, 1000.000000000000000 ) ;
#104 = CARTESIAN_POINT ( 'NONE',  ( 111.3137084989847500, 0.0000000000000000000, 4.000000000000000000 ) ) ;
#105 = PLANE ( 'NONE',  #124 ) ;
#106 =( NAMED_UNIT ( * ) PLANE_ANGLE_UNIT ( ) SI_UNIT ( $, .RADIAN. ) );
#107 =( LENGTH_UNIT ( ) NAMED_UNIT ( * ) SI_UNIT ( .MILLI., .METRE. ) );
#108 = DIRECTION ( 'NONE',  ( 0.0000000000000000000, 0.0000000000000000000, -1.000000000000000000 ) ) ;
#109 = DIRECTION ( 'NONE',  ( 1.000000000000000000, 0.0000000000000000000, 0.0000000000000000000 ) ) ;
#110 = CARTESIAN_POINT ( 'NONE',  ( 0.0000000000000000000, 0.0000000000000000000, 0.0000000000000000000 ) ) ;
#111 = CIRCLE ( 'NONE', #120, 2.500000000000000000 ) ;
#112 = CARTESIAN_POINT ( 'NONE',  ( 100.0000000000000000, 0.0000000000000000000, 0.0000000000000000000 ) ) ;
#113 = COLOUR_RGB ( '',0.2470588235294117800, 0.6470588235294118000, 1.000000000000000000 ) ;
#114 = AXIS2_PLACEMENT_3D ( 'NONE', #112, #118, #138 ) ;
#115 = DIRECTION ( 'NONE',  ( 0.0000000000000000000, 0.0000000000000000000, -1.000000000000000000 ) ) ;
#116 = DIRECTION ( 'NONE',  ( 1.000000000000000000, 0.0000000000000000000, 0.0000000000000000000 ) ) ;
#117 = CARTESIAN_POINT ( 'NONE',  ( 100.0000000000000000, 0.0000000000000000000, 0.0000000000000000000 ) ) ;
#118 = DIRECTION ( 'NONE',  ( 1.000000000000000000, 0.0000000000000000000, 0.0000000000000000000 ) ) ;
#119 = CARTESIAN_POINT ( 'NONE',  ( 0.0000000000000000000, 4.898587196589412800E-016, -4.000000000000000000 ) ) ;
#120 = AXIS2_PLACEMENT_3D ( 'NONE', #110, #109, #108 ) ;
#121 =( GEOMETRIC_REPRESENTATION_CONTEXT ( 3 ) GLOBAL_UNCERTAINTY_ASSIGNED_CONTEXT ( ( #129 ) ) GLOBAL_UNIT_ASSIGNED_CONTEXT ( ( #107, #106, #130 ) ) REPRESENTATION_CONTEXT ( 'NONE', 'WORKASPACE' ) );
#122 = COLOUR_RGB ( '',0.2470588235294117800, 0.6470588235294118000, 1.000000000000000000 ) ;
#123 = FACE_OUTER_BOUND ( 'NONE', #35, .T. ) ;
#124 = AXIS2_PLACEMENT_3D ( 'NONE', #117, #116, #115 ) ;
#125 = SURFACE_SIDE_STYLE ('',( #126 ) ) ;
#126 = SURFACE_STYLE_FILL_AREA ( #127 ) ;
#127 = FILL_AREA_STYLE ('',( #136 ) ) ;
#128 = CIRCLE ( 'NONE', #114, 4.000000000000000000 ) ;
#129 = UNCERTAINTY_MEASURE_WITH_UNIT (LENGTH_MEASURE( 1.000000000000000100E-005 ), #107, 'distance_accuracy_value', 'NONE');
#130 =( NAMED_UNIT ( * ) SI_UNIT ( $, .STERADIAN. ) SOLID_ANGLE_UNIT ( ) );
#131 = MECHANICAL_DESIGN_GEOMETRIC_PRESENTATION_REPRESENTATION (  '', ( #133 ), #121 ) ;
#132 = PRESENTATION_LAYER_ASSIGNMENT (  '', '', ( #133 ) ) ;
#133 = STYLED_ITEM ( 'NONE', ( #134 ), #18 ) ;
#134 = PRESENTATION_STYLE_ASSIGNMENT (( #135 ) ) ;
#135 = SURFACE_STYLE_USAGE ( .BOTH. , #125 ) ;
#136 = FILL_AREA_STYLE_COLOUR ( '', #122 ) ;
#137 = DIRECTION ( 'NONE',  ( 1.000000000000000000, 0.0000000000000000000, 0.0000000000000000000 ) ) ;
#138 = DIRECTION ( 'NONE',  ( 0.0000000000000000000, 0.0000000000000000000, -1.000000000000000000 ) ) ;
#139 = FACE_BOUND ( 'NONE', #80, .T. ) ;
#140 = CARTESIAN_POINT ( 'NONE',  ( 0.0000000000000000000, 0.0000000000000000000, 2.500000000000000000 ) ) ;
#141 = SURFACE_STYLE_FILL_AREA ( #142 ) ;
#142 = FILL_AREA_STYLE ('',( #143 ) ) ;
#143 = FILL_AREA_STYLE_COLOUR ( '', #113 ) ;
#144 = SURFACE_STYLE_FILL_AREA ( #211 ) ;
#145 = FACE_OUTER_BOUND ( 'NONE', #24, .T. ) ;
#146 = CARTESIAN_POINT ( 'NONE',  ( 0.0000000000000000000, 0.0000000000000000000, 4.000000000000000000 ) ) ;
#147 = UNCERTAINTY_MEASURE_WITH_UNIT (LENGTH_MEASURE( 1.000000000000000100E-005 ), #231, 'distance_accuracy_value', 'NONE');
#148 =( NAMED_UNIT ( * ) SI_UNIT ( $, .STERADIAN. ) SOLID_ANGLE_UNIT ( ) );
#149 = FACE_OUTER_BOUND ( 'NONE', #19, .T. ) ;
#150 = COLOUR_RGB ( '',0.2470588235294117800, 0.6470588235294118000, 1.000000000000000000 ) ;
#151 = AXIS2_PLACEMENT_3D ( 'NONE', #161, #202, #198 ) ;
#152 = DIRECTION ( 'NONE',  ( 0.0000000000000000000, 0.0000000000000000000, -1.000000000000000000 ) ) ;
#153 = DIRECTION ( 'NONE',  ( 1.000000000000000000, 0.0000000000000000000, 0.0000000000000000000 ) ) ;
#154 = MECHANICAL_DESIGN_GEOMETRIC_PRESENTATION_REPRESENTATION (  '', ( #156 ), #226 ) ;
#155 = PRESENTATION_LAYER_ASSIGNMENT (  '', '', ( #156 ) ) ;
#156 = STYLED_ITEM ( 'NONE', ( #168 ), #49 ) ;
#157 = AXIS2_PLACEMENT_3D ( 'NONE', #223, #233, #209 ) ;
#158 = SURFACE_STYLE_FILL_AREA ( #159 ) ;
#159 = FILL_AREA_STYLE ('',( #224 ) ) ;
#160 = FILL_AREA_STYLE_COLOUR ( '', #201 ) ;
#161 = CARTESIAN_POINT ( 'NONE',  ( 111.3137084989847500, 0.0000000000000000000, 0.0000000000000000000 ) ) ;
#162 = DIRECTION ( 'NONE',  ( 0.0000000000000000000, 0.0000000000000000000, -1.000000000000000000 ) ) ;
#163 = DIRECTION ( 'NONE',  ( 1.000000000000000000, 0.0000000000000000000, 0.0000000000000000000 ) ) ;
#164 = UNCERTAINTY_MEASURE_WITH_UNIT (LENGTH_MEASURE( 1.000000000000000100E-005 ), #171, 'distance_accuracy_value', 'NONE');
#165 =( NAMED_UNIT ( * ) SI_UNIT ( $, .STERADIAN. ) SOLID_ANGLE_UNIT ( ) );
#166 =( NAMED_UNIT ( * ) PLANE_ANGLE_UNIT ( ) SI_UNIT ( $, .RADIAN. ) );
#167 = CARTESIAN_POINT ( 'NONE',  ( 100.0000000000000000, 0.0000000000000000000, 4.000000000000000000 ) ) ;
#168 = PRESENTATION_STYLE_ASSIGNMENT (( #169 ) ) ;
#169 = SURFACE_STYLE_USAGE ( .BOTH. , #170 ) ;
#170 = SURFACE_SIDE_STYLE ('',( #144 ) ) ;
#171 =( LENGTH_UNIT ( ) NAMED_UNIT ( * ) SI_UNIT ( .MILLI., .METRE. ) );
#172 = MECHANICAL_DESIGN_GEOMETRIC_PRESENTATION_REPRESENTATION (  '', ( #174 ), #204 ) ;
#173 = PRESENTATION_LAYER_ASSIGNMENT (  '', '', ( #174 ) ) ;
#174 = STYLED_ITEM ( 'NONE', ( #175 ), #57 ) ;
#175 = PRESENTATION_STYLE_ASSIGNMENT (( #176 ) ) ;
#176 = SURFACE_STYLE_USAGE ( .BOTH. , #177 ) ;
#177 = SURFACE_SIDE_STYLE ('',( #158 ) ) ;
#178 = DIRECTION ( 'NONE',  ( 0.0000000000000000000, 0.0000000000000000000, -1.000000000000000000 ) ) ;
#179 = DIRECTION ( 'NONE',  ( 1.000000000000000000, 0.0000000000000000000, 0.0000000000000000000 ) ) ;
#180 = CIRCLE ( 'NONE', #234, 4.000000000000000000 ) ;
#181 = MECHANICAL_DESIGN_GEOMETRIC_PRESENTATION_REPRESENTATION (  '', ( #200 ), #302 ) ;
#182 = PRESENTATION_LAYER_ASSIGNMENT (  '', '', ( #200 ) ) ;
#183 = DIRECTION ( 'NONE',  ( -1.000000000000000000, -0.0000000000000000000, -0.0000000000000000000 ) ) ;
#184 = VECTOR ( 'NONE', #183, 1000.000000000000000 ) ;
#185 = CARTESIAN_POINT ( 'NONE',  ( 111.3137084989847500, 4.898587196589412800E-016, -4.000000000000000000 ) ) ;
#186 =( LENGTH_UNIT ( ) NAMED_UNIT ( * ) SI_UNIT ( .MILLI., .METRE. ) );
#187 = CARTESIAN_POINT ( 'NONE',  ( 111.3137084989847500, 0.0000000000000000000, 0.0000000000000000000 ) ) ;
#188 = LINE ( 'NONE', #185, #184 ) ;
#189 = CARTESIAN_POINT ( 'NONE',  ( 100.0000000000000000, 0.0000000000000000000, 0.0000000000000000000 ) ) ;
#190 = SURFACE_SIDE_STYLE ('',( #141 ) ) ;
#191 = DIRECTION ( 'NONE',  ( -1.000000000000000000, -0.0000000000000000000, -0.0000000000000000000 ) ) ;
#192 = DIRECTION ( 'NONE',  ( 0.0000000000000000000, 0.0000000000000000000, 1.000000000000000000 ) ) ;
#193 = SURFACE_STYLE_USAGE ( .BOTH. , #194 ) ;
#194 = SURFACE_SIDE_STYLE ('',( #195 ) ) ;
#195 = SURFACE_STYLE_FILL_AREA ( #196 ) ;
#196 = FILL_AREA_STYLE ('',( #160 ) ) ;
#197 = PRESENTATION_STYLE_ASSIGNMENT (( #203 ) ) ;
#198 = DIRECTION ( 'NONE',  ( 0.0000000000000000000, 0.0000000000000000000, 1.000000000000000000 ) ) ;
#199 = FACE_OUTER_BOUND ( 'NONE', #79, .T. ) ;
#200 = STYLED_ITEM ( 'NONE', ( #197 ), #15 ) ;
#201 = COLOUR_RGB ( '',0.2470588235294117800, 0.6470588235294118000, 1.000000000000000000 ) ;
#202 = DIRECTION ( 'NONE',  ( -1.000000000000000000, -0.0000000000000000000, -0.0000000000000000000 ) ) ;
#203 = SURFACE_STYLE_USAGE ( .BOTH. , #190 ) ;
#204 =( GEOMETRIC_REPRESENTATION_CONTEXT ( 3 ) GLOBAL_UNCERTAINTY_ASSIGNED_CONTEXT ( ( #164 ) ) GLOBAL_UNIT_ASSIGNED_CONTEXT ( ( #171, #166, #165 ) ) REPRESENTATION_CONTEXT ( 'NONE', 'WORKASPACE' ) );
#205 = CIRCLE ( 'NONE', #225, 2.500000000000000000 ) ;
#206 = CARTESIAN_POINT ( 'NONE',  ( 100.0000000000000000, 0.0000000000000000000, 0.0000000000000000000 ) ) ;
#207 = AXIS2_PLACEMENT_3D ( 'NONE', #206, #163, #162 ) ;
#208 = CIRCLE ( 'NONE', #207, 2.500000000000000000 ) ;
#209 = DIRECTION ( 'NONE',  ( 0.0000000000000000000, 0.0000000000000000000, -1.000000000000000000 ) ) ;
#210 = CARTESIAN_POINT ( 'NONE',  ( 100.0000000000000000, 3.061616997868383100E-016, -2.500000000000000000 ) ) ;
#211 = FILL_AREA_STYLE ('',( #212 ) ) ;
#212 = FILL_AREA_STYLE_COLOUR ( '', #227 ) ;
#213 = FACE_BOUND ( 'NONE', #52, .T. ) ;
#214 =( GEOMETRIC_REPRESENTATION_CONTEXT ( 3 ) GLOBAL_UNCERTAINTY_ASSIGNED_CONTEXT ( ( #215 ) ) GLOBAL_UNIT_ASSIGNED_CONTEXT ( ( #218, #217, #216 ) ) REPRESENTATION_CONTEXT ( 'NONE', 'WORKASPACE' ) );
#215 = UNCERTAINTY_MEASURE_WITH_UNIT (LENGTH_MEASURE( 1.000000000000000100E-005 ), #218, 'distance_accuracy_value', 'NONE');
#216 =( NAMED_UNIT ( * ) SI_UNIT ( $, .STERADIAN. ) SOLID_ANGLE_UNIT ( ) );
#217 =( NAMED_UNIT ( * ) PLANE_ANGLE_UNIT ( ) SI_UNIT ( $, .RADIAN. ) );
#218 =( LENGTH_UNIT ( ) NAMED_UNIT ( * ) SI_UNIT ( .MILLI., .METRE. ) );
#219 = MECHANICAL_DESIGN_GEOMETRIC_PRESENTATION_REPRESENTATION (  '', ( #221 ), #214 ) ;
#220 = PRESENTATION_LAYER_ASSIGNMENT (  '', '', ( #221 ) ) ;
#221 = STYLED_ITEM ( 'NONE', ( #222 ), #62 ) ;
#222 = PRESENTATION_STYLE_ASSIGNMENT (( #193 ) ) ;
#223 = CARTESIAN_POINT ( 'NONE',  ( 0.0000000000000000000, 0.0000000000000000000, 0.0000000000000000000 ) ) ;
#224 = FILL_AREA_STYLE_COLOUR ( '', #150 ) ;
#225 = AXIS2_PLACEMENT_3D ( 'NONE', #232, #153, #152 ) ;
#226 =( GEOMETRIC_REPRESENTATION_CONTEXT ( 3 ) GLOBAL_UNCERTAINTY_ASSIGNED_CONTEXT ( ( #147 ) ) GLOBAL_UNIT_ASSIGNED_CONTEXT ( ( #231, #230, #148 ) ) REPRESENTATION_CONTEXT ( 'NONE', 'WORKASPACE' ) );
#227 = COLOUR_RGB ( '',0.2470588235294117800, 0.6470588235294118000, 1.000000000000000000 ) ;
#228 = PLANE ( 'NONE',  #157 ) ;
#229 = CYLINDRICAL_SURFACE ( 'NONE', #235, 4.000000000000000000 ) ;
#230 =( NAMED_UNIT ( * ) PLANE_ANGLE_UNIT ( ) SI_UNIT ( $, .RADIAN. ) );
#231 =( LENGTH_UNIT ( ) NAMED_UNIT ( * ) SI_UNIT ( .MILLI., .METRE. ) );
#232 = CARTESIAN_POINT ( 'NONE',  ( 0.0000000000000000000, 0.0000000000000000000, 0.0000000000000000000 ) ) ;
#233 = DIRECTION ( 'NONE',  ( 1.000000000000000000, 0.0000000000000000000, 0.0000000000000000000 ) ) ;
#234 = AXIS2_PLACEMENT_3D ( 'NONE', #189, #179, #178 ) ;
#235 = AXIS2_PLACEMENT_3D ( 'NONE', #187, #191, #192 ) ;
#236 = CYLINDRICAL_SURFACE ( 'NONE', #151, 2.500000000000000000 ) ;
#237 = UNCERTAINTY_MEASURE_WITH_UNIT (LENGTH_MEASURE( 1.000000000000000100E-005 ), #277, 'distance_accuracy_value', 'NONE');
#238 =( NAMED_UNIT ( * ) SI_UNIT ( $, .STERADIAN. ) SOLID_ANGLE_UNIT ( ) );
#239 =( NAMED_UNIT ( * ) PLANE_ANGLE_UNIT ( ) SI_UNIT ( $, .RADIAN. ) );
#240 =( NAMED_UNIT ( * ) PLANE_ANGLE_UNIT ( ) SI_UNIT ( $, .RADIAN. ) );
#241 =( GEOMETRIC_REPRESENTATION_CONTEXT ( 3 ) GLOBAL_UNCERTAINTY_ASSIGNED_CONTEXT ( ( #242 ) ) GLOBAL_UNIT_ASSIGNED_CONTEXT ( ( #245, #244, #243 ) ) REPRESENTATION_CONTEXT ( 'NONE', 'WORKASPACE' ) );
#242 = UNCERTAINTY_MEASURE_WITH_UNIT (LENGTH_MEASURE( 1.000000000000000100E-005 ), #245, 'distance_accuracy_value', 'NONE');
#243 =( NAMED_UNIT ( * ) SI_UNIT ( $, .STERADIAN. ) SOLID_ANGLE_UNIT ( ) );
#244 =( NAMED_UNIT ( * ) PLANE_ANGLE_UNIT ( ) SI_UNIT ( $, .RADIAN. ) );
#245 =( LENGTH_UNIT ( ) NAMED_UNIT ( * ) SI_UNIT ( .MILLI., .METRE. ) );
#246 = MECHANICAL_DESIGN_GEOMETRIC_PRESENTATION_REPRESENTATION (  '', ( #248 ), #241 ) ;
#247 = PRESENTATION_LAYER_ASSIGNMENT (  '', '', ( #248 ) ) ;
#248 = STYLED_ITEM ( 'NONE', ( #249 ), #81 ) ;
#249 = PRESENTATION_STYLE_ASSIGNMENT (( #250 ) ) ;
#250 = SURFACE_STYLE_USAGE ( .BOTH. , #251 ) ;
#251 = SURFACE_SIDE_STYLE ('',( #258 ) ) ;
#252 = DIRECTION ( 'NONE',  ( -1.000000000000000000, -0.0000000000000000000, -0.0000000000000000000 ) ) ;
#253 = VECTOR ( 'NONE', #252, 1000.000000000000000 ) ;
#254 = CARTESIAN_POINT ( 'NONE',  ( 111.3137084989847500, 3.061616997868383100E-016, -2.500000000000000000 ) ) ;
#255 = LINE ( 'NONE', #254, #253 ) ;
#256 = FILL_AREA_STYLE ('',( #259 ) ) ;
#257 = DIRECTION ( 'NONE',  ( 0.0000000000000000000, 0.0000000000000000000, 1.000000000000000000 ) ) ;
#258 = SURFACE_STYLE_FILL_AREA ( #256 ) ;
#259 = FILL_AREA_STYLE_COLOUR ( '', #273 ) ;
#260 = DIRECTION ( 'NONE',  ( -1.000000000000000000, -0.0000000000000000000, -0.0000000000000000000 ) ) ;
#261 =( GEOMETRIC_REPRESENTATION_CONTEXT ( 3 ) GLOBAL_UNCERTAINTY_ASSIGNED_CONTEXT ( ( #262 ) ) GLOBAL_UNIT_ASSIGNED_CONTEXT ( ( #265, #264, #263 ) ) REPRESENTATION_CONTEXT ( 'NONE', 'WORKASPACE' ) );
#262 = UNCERTAINTY_MEASURE_WITH_UNIT (LENGTH_MEASURE( 1.000000000000000100E-005 ), #265, 'distance_accuracy_value', 'NONE');
#263 =( NAMED_UNIT ( * ) SI_UNIT ( $, .STERADIAN. ) SOLID_ANGLE_UNIT ( ) );
#264 =( NAMED_UNIT ( * ) PLANE_ANGLE_UNIT ( ) SI_UNIT ( $, .RADIAN. ) );
#265 =( LENGTH_UNIT ( ) NAMED_UNIT ( * ) SI_UNIT ( .MILLI., .METRE. ) );
#266 = MECHANICAL_DESIGN_GEOMETRIC_PRESENTATION_REPRESENTATION (  '', ( #268 ), #261 ) ;
#267 = PRESENTATION_LAYER_ASSIGNMENT (  '', '', ( #268 ) ) ;
#268 = STYLED_ITEM ( 'NONE', ( #269 ), #75 ) ;
#269 = PRESENTATION_STYLE_ASSIGNMENT (( #270 ) ) ;
#270 = SURFACE_STYLE_USAGE ( .BOTH. , #271 ) ;
#271 = SURFACE_SIDE_STYLE ('',( #272 ) ) ;
#272 = SURFACE_STYLE_FILL_AREA ( #289 ) ;
#273 = COLOUR_RGB ( '',0.0000000000000000000, 0.5843137254901961100, 0.9058823529411764700 ) ;
#274 = CARTESIAN_POINT ( 'NONE',  ( 100.0000000000000000, 0.0000000000000000000, 0.0000000000000000000 ) ) ;
#275 = CIRCLE ( 'NONE', #283, 2.500000000000000000 ) ;
#276 = CARTESIAN_POINT ( 'NONE',  ( 111.3137084989847500, 0.0000000000000000000, 0.0000000000000000000 ) ) ;
#277 =( LENGTH_UNIT ( ) NAMED_UNIT ( * ) SI_UNIT ( .MILLI., .METRE. ) );
#278 = FACE_OUTER_BOUND ( 'NONE', #10, .T. ) ;
#279 = COLOUR_RGB ( '',0.2470588235294117800, 0.6470588235294118000, 1.000000000000000000 ) ;
#280 = DIRECTION ( 'NONE',  ( 0.0000000000000000000, 0.0000000000000000000, -1.000000000000000000 ) ) ;
#281 = CARTESIAN_POINT ( 'NONE',  ( 100.0000000000000000, 4.898587196589412800E-016, -4.000000000000000000 ) ) ;
#282 = CARTESIAN_POINT ( 'NONE',  ( 100.0000000000000000, 0.0000000000000000000, 2.500000000000000000 ) ) ;
#283 = AXIS2_PLACEMENT_3D ( 'NONE', #274, #288, #280 ) ;
#284 = FILL_AREA_STYLE_COLOUR ( '', #279 ) ;
#285 = AXIS2_PLACEMENT_3D ( 'NONE', #276, #260, #257 ) ;
#286 = CARTESIAN_POINT ( 'NONE',  ( 0.0000000000000000000, 3.061616997868383100E-016, -2.500000000000000000 ) ) ;
#287 = CYLINDRICAL_SURFACE ( 'NONE', #285, 2.500000000000000000 ) ;
#288 = DIRECTION ( 'NONE',  ( 1.000000000000000000, 0.0000000000000000000, 0.0000000000000000000 ) ) ;
#289 = FILL_AREA_STYLE ('',( #284 ) ) ;
#290 = AXIS2_PLACEMENT_3D ( 'NONE', #320, #319, #318 ) ;
#291 = DIRECTION ( 'NONE',  ( 1.000000000000000000, 0.0000000000000000000, 0.0000000000000000000 ) ) ;
#292 = DIRECTION ( 'NONE',  ( 0.0000000000000000000, 0.0000000000000000000, 1.000000000000000000 ) ) ;
#293 = CARTESIAN_POINT ( 'NONE',  ( 0.0000000000000000000, 0.0000000000000000000, 0.0000000000000000000 ) ) ;
#294 = AXIS2_PLACEMENT_3D ( 'NONE', #293, #292, #291 ) ;
#295 = SHAPE_REPRESENTATION ( 'TU0805BU-100.step', ( #297, #290 ), #313 ) ;
#296 = CARTESIAN_POINT ( 'NONE',  ( 0.0000000000000000000, 0.0000000000000000000, 0.0000000000000000000 ) ) ;
#297 = AXIS2_PLACEMENT_3D ( 'NONE', #296, #299, #298 ) ;
#298 = DIRECTION ( 'NONE',  ( 1.000000000000000000, 0.0000000000000000000, 0.0000000000000000000 ) ) ;
#299 = DIRECTION ( 'NONE',  ( 0.0000000000000000000, 0.0000000000000000000, 1.000000000000000000 ) ) ;
#300 = SHAPE_REPRESENTATION_RELATIONSHIP ( 'NONE' , 'NONE' ,  #301, #15 ) ;
#301 = SHAPE_REPRESENTATION ( 'TU0805BU-100.step_TU3076 Tube_0805BU', ( #45 ), #16 ) ;
#302 =( GEOMETRIC_REPRESENTATION_CONTEXT ( 3 ) GLOBAL_UNCERTAINTY_ASSIGNED_CONTEXT ( ( #303 ) ) GLOBAL_UNIT_ASSIGNED_CONTEXT ( ( #186, #240, #304 ) ) REPRESENTATION_CONTEXT ( 'NONE', 'WORKASPACE' ) );
#303 = UNCERTAINTY_MEASURE_WITH_UNIT (LENGTH_MEASURE( 1.000000000000000100E-005 ), #186, 'distance_accuracy_value', 'NONE');
#304 =( NAMED_UNIT ( * ) SI_UNIT ( $, .STERADIAN. ) SOLID_ANGLE_UNIT ( ) );
#305 = PRODUCT_DEFINITION_SHAPE ( 'NONE', 'NONE',  #335 ) ;
#306 = CONTEXT_DEPENDENT_SHAPE_REPRESENTATION ( #310, #309 ) ;
#307 = PRODUCT_CONTEXT ( 'NONE', #308, 'mechanical' ) ;
#308 = APPLICATION_CONTEXT ( 'automotive_design' ) ;
#309 = PRODUCT_DEFINITION_SHAPE ( 'NONE', 'NONE',  #341 ) ;
#310 =( REPRESENTATION_RELATIONSHIP ('NONE','NONE', #295, #301 ) REPRESENTATION_RELATIONSHIP_WITH_TRANSFORMATION ( #331 )SHAPE_REPRESENTATION_RELATIONSHIP( ) );
#311 = APPLICATION_CONTEXT ( 'automotive_design' ) ;
#312 = SHAPE_DEFINITION_REPRESENTATION ( #321, #295 ) ;
#313 =( GEOMETRIC_REPRESENTATION_CONTEXT ( 3 ) GLOBAL_UNCERTAINTY_ASSIGNED_CONTEXT ( ( #314 ) ) GLOBAL_UNIT_ASSIGNED_CONTEXT ( ( #317, #316, #315 ) ) REPRESENTATION_CONTEXT ( 'NONE', 'WORKASPACE' ) );
#314 = UNCERTAINTY_MEASURE_WITH_UNIT (LENGTH_MEASURE( 1.000000000000000100E-005 ), #317, 'distance_accuracy_value', 'NONE');
#315 =( NAMED_UNIT ( * ) SI_UNIT ( $, .STERADIAN. ) SOLID_ANGLE_UNIT ( ) );
#316 =( NAMED_UNIT ( * ) PLANE_ANGLE_UNIT ( ) SI_UNIT ( $, .RADIAN. ) );
#317 =( LENGTH_UNIT ( ) NAMED_UNIT ( * ) SI_UNIT ( .MILLI., .METRE. ) );
#318 = DIRECTION ( 'NONE',  ( 1.000000000000000000, 0.0000000000000000000, 0.0000000000000000000 ) ) ;
#319 = DIRECTION ( 'NONE',  ( 0.0000000000000000000, 0.0000000000000000000, 1.000000000000000000 ) ) ;
#320 = CARTESIAN_POINT ( 'NONE',  ( 0.0000000000000000000, 0.0000000000000000000, 0.0000000000000000000 ) ) ;
#321 = PRODUCT_DEFINITION_SHAPE ( 'NONE', 'NONE',  #324 ) ;
#322 = PRODUCT_RELATED_PRODUCT_CATEGORY ( 'part', '', ( #328 ) ) ;
#323 = PRODUCT_DEFINITION_FORMATION_WITH_SPECIFIED_SOURCE ( 'ANY', '', #328, .NOT_KNOWN. ) ;
#324 = PRODUCT_DEFINITION ( 'UNKNOWN', '', #323, #325 ) ;
#325 = PRODUCT_DEFINITION_CONTEXT ( 'detailed design', #327, 'design' ) ;
#326 = APPLICATION_PROTOCOL_DEFINITION ( 'draft international standard', 'automotive_design', 1998, #327 ) ;
#327 = APPLICATION_CONTEXT ( 'automotive_design' ) ;
#328 = PRODUCT ( 'TU0805BU-100.step', 'TU0805BU-100.step', '', ( #329 ) ) ;
#329 = PRODUCT_CONTEXT ( 'NONE', #311, 'mechanical' ) ;
#330 = APPLICATION_PROTOCOL_DEFINITION ( 'draft international standard', 'automotive_design', 1998, #311 ) ;
#331 = ITEM_DEFINED_TRANSFORMATION ( 'NONE', 'NONE', #290,  #45 ) ;
#332 = PRODUCT_RELATED_PRODUCT_CATEGORY ( 'part', '', ( #339 ) ) ;
#333 = PRODUCT_DEFINITION_FORMATION_WITH_SPECIFIED_SOURCE ( 'ANY', '', #339, .NOT_KNOWN. ) ;
#334 = SHAPE_DEFINITION_REPRESENTATION ( #305, #301 ) ;
#335 = PRODUCT_DEFINITION ( 'UNKNOWN', '', #333, #336 ) ;
#336 = PRODUCT_DEFINITION_CONTEXT ( 'detailed design', #338, 'design' ) ;
#337 = APPLICATION_PROTOCOL_DEFINITION ( 'draft international standard', 'automotive_design', 1998, #338 ) ;
#338 = APPLICATION_CONTEXT ( 'automotive_design' ) ;
#339 = PRODUCT ( 'TU0805BU-100.step_TU3076 Tube_0805BU', 'TU0805BU-100.step_TU3076 Tube_0805BU', '', ( #307 ) ) ;
#340 = APPLICATION_PROTOCOL_DEFINITION ( 'draft international standard', 'automotive_design', 1998, #308 ) ;
#341 = NEXT_ASSEMBLY_USAGE_OCCURRENCE ( 'NAUO1', ' ', ' ', #324, #335, $ ) ;
ENDSEC;
END-ISO-10303-21;
