ISO-10303-21;
HEADER;
FILE_DESCRIPTION (( 'STEP AP214' ),
    '1' );
FILE_NAME ('TU0805C-100.step.step',
    '2017-11-14T13:54:47',
    ( 'Windows User' ),
    ( '' ),
    'SwSTEP 2.0',
    'SolidWorks 2017',
    '' );
FILE_SCHEMA (( 'AUTOMOTIVE_DESIGN' ));
ENDSEC;

DATA;
#1 = PRODUCT ( 'TU0805C-100.step', 'TU0805C-100.step', '', ( #40 ) ) ;
#2 = PRODUCT_DEFINITION_CONTEXT ( 'detailed design', #51, 'design' ) ;
#3 = CIRCLE ( 'NONE', #206, 4.000000000000000000 ) ;
#4 = CYLINDRICAL_SURFACE ( 'NONE', #162, 4.000000000000000000 ) ;
#5 = COLOUR_RGB ( '',0.9686274509803921600, 1.000000000000000000, 0.9803921568627450600 ) ;
#6 = PRESENTATION_STYLE_ASSIGNMENT (( #98 ) ) ;
#7 = PRESENTATION_STYLE_ASSIGNMENT (( #323 ) ) ;
#8 = ORIENTED_EDGE ( 'NONE', *, *, #199, .F. ) ;
#9 = FACE_OUTER_BOUND ( 'NONE', #12, .T. ) ;
#10 = CIRCLE ( 'NONE', #260, 2.500000000000000000 ) ;
#11 = FACE_OUTER_BOUND ( 'NONE', #13, .T. ) ;
#12 = EDGE_LOOP ( 'NONE', ( #287, #277, #298, #154 ) ) ;
#13 = EDGE_LOOP ( 'NONE', ( #302, #226, #147, #23 ) ) ;
#14 = UNCERTAINTY_MEASURE_WITH_UNIT (LENGTH_MEASURE( 1.000000000000000100E-005 ), #204, 'distance_accuracy_value', 'NONE');
#15 = PRODUCT ( 'TU0805C-100.step_TU3076 Tube_0805C', 'TU0805C-100.step_TU3076 Tube_0805C', '', ( #50 ) ) ;
#16 = ADVANCED_FACE ( 'NONE', ( #304, #207 ), #245, .F. ) ;
#17 = VERTEX_POINT ( 'NONE', #143 ) ;
#18 = PRESENTATION_STYLE_ASSIGNMENT (( #225 ) ) ;
#19 = VERTEX_POINT ( 'NONE', #119 ) ;
#20 = ORIENTED_EDGE ( 'NONE', *, *, #200, .T. ) ;
#21 = COLOUR_RGB ( '',0.9686274509803921600, 1.000000000000000000, 0.9803921568627450600 ) ;
#22 = SURFACE_STYLE_FILL_AREA ( #236 ) ;
#23 = ORIENTED_EDGE ( 'NONE', *, *, #284, .F. ) ;
#24 = AXIS2_PLACEMENT_3D ( 'NONE', #120, #112, #107 ) ;
#25 = SURFACE_STYLE_FILL_AREA ( #77 ) ;
#26 = EDGE_CURVE ( 'NONE', #301, #166, #140, .T. ) ;
#27 = SHAPE_REPRESENTATION_RELATIONSHIP ( 'NONE' , 'NONE' ,  #312, #258 ) ;
#28 = AXIS2_PLACEMENT_3D ( 'NONE', #234, #153, #233 ) ;
#29 =( GEOMETRIC_REPRESENTATION_CONTEXT ( 3 ) GLOBAL_UNCERTAINTY_ASSIGNED_CONTEXT ( ( #35 ) ) GLOBAL_UNIT_ASSIGNED_CONTEXT ( ( #86, #72, #69 ) ) REPRESENTATION_CONTEXT ( 'NONE', 'WORKASPACE' ) );
#30 = AXIS2_PLACEMENT_3D ( 'NONE', #62, #54, #56 ) ;
#31 = UNCERTAINTY_MEASURE_WITH_UNIT (LENGTH_MEASURE( 1.000000000000000100E-005 ), #265, 'distance_accuracy_value', 'NONE');
#32 = CONTEXT_DEPENDENT_SHAPE_REPRESENTATION ( #38, #272 ) ;
#33 = SHAPE_DEFINITION_REPRESENTATION ( #46, #312 ) ;
#34 = MANIFOLD_SOLID_BREP ( 'Tube', #157 ) ;
#35 = UNCERTAINTY_MEASURE_WITH_UNIT (LENGTH_MEASURE( 1.000000000000000100E-005 ), #86, 'distance_accuracy_value', 'NONE');
#36 = UNCERTAINTY_MEASURE_WITH_UNIT (LENGTH_MEASURE( 1.000000000000000100E-005 ), #332, 'distance_accuracy_value', 'NONE');
#37 = ORIENTED_EDGE ( 'NONE', *, *, #195, .F. ) ;
#38 =( REPRESENTATION_RELATIONSHIP ('NONE','NONE', #43, #312 ) REPRESENTATION_RELATIONSHIP_WITH_TRANSFORMATION ( #267 )SHAPE_REPRESENTATION_RELATIONSHIP( ) );
#39 = APPLICATION_PROTOCOL_DEFINITION ( 'draft international standard', 'automotive_design', 1998, #57 ) ;
#40 = PRODUCT_CONTEXT ( 'NONE', #48, 'mechanical' ) ;
#41 = APPLICATION_PROTOCOL_DEFINITION ( 'draft international standard', 'automotive_design', 1998, #42 ) ;
#42 = APPLICATION_CONTEXT ( 'automotive_design' ) ;
#43 = SHAPE_REPRESENTATION ( 'TU0805C-100.step', ( #30, #274 ), #181 ) ;
#44 = APPLICATION_PROTOCOL_DEFINITION ( 'draft international standard', 'automotive_design', 1998, #51 ) ;
#45 = EDGE_LOOP ( 'NONE', ( #150, #271 ) ) ;
#46 = PRODUCT_DEFINITION_SHAPE ( 'NONE', 'NONE',  #183 ) ;
#47 = APPLICATION_PROTOCOL_DEFINITION ( 'draft international standard', 'automotive_design', 1998, #48 ) ;
#48 = APPLICATION_CONTEXT ( 'automotive_design' ) ;
#49 =( NAMED_UNIT ( * ) PLANE_ANGLE_UNIT ( ) SI_UNIT ( $, .RADIAN. ) );
#50 = PRODUCT_CONTEXT ( 'NONE', #57, 'mechanical' ) ;
#51 = APPLICATION_CONTEXT ( 'automotive_design' ) ;
#52 =( LENGTH_UNIT ( ) NAMED_UNIT ( * ) SI_UNIT ( .MILLI., .METRE. ) );
#53 = DIRECTION ( 'NONE',  ( 1.000000000000000000, 0.0000000000000000000, 0.0000000000000000000 ) ) ;
#54 = DIRECTION ( 'NONE',  ( 0.0000000000000000000, 0.0000000000000000000, 1.000000000000000000 ) ) ;
#55 =( NAMED_UNIT ( * ) SI_UNIT ( $, .STERADIAN. ) SOLID_ANGLE_UNIT ( ) );
#56 = DIRECTION ( 'NONE',  ( 1.000000000000000000, 0.0000000000000000000, 0.0000000000000000000 ) ) ;
#57 = APPLICATION_CONTEXT ( 'automotive_design' ) ;
#58 =( NAMED_UNIT ( * ) SI_UNIT ( $, .STERADIAN. ) SOLID_ANGLE_UNIT ( ) );
#59 =( LENGTH_UNIT ( ) NAMED_UNIT ( * ) SI_UNIT ( .MILLI., .METRE. ) );
#60 = DIRECTION ( 'NONE',  ( 0.0000000000000000000, 0.0000000000000000000, 1.000000000000000000 ) ) ;
#61 =( NAMED_UNIT ( * ) PLANE_ANGLE_UNIT ( ) SI_UNIT ( $, .RADIAN. ) );
#62 = CARTESIAN_POINT ( 'NONE',  ( 0.0000000000000000000, 0.0000000000000000000, 0.0000000000000000000 ) ) ;
#63 = SURFACE_STYLE_USAGE ( .BOTH. , #70 ) ;
#64 = CARTESIAN_POINT ( 'NONE',  ( 0.0000000000000000000, 0.0000000000000000000, 0.0000000000000000000 ) ) ;
#65 =( NAMED_UNIT ( * ) SI_UNIT ( $, .STERADIAN. ) SOLID_ANGLE_UNIT ( ) );
#66 = DIRECTION ( 'NONE',  ( 1.000000000000000000, 0.0000000000000000000, 0.0000000000000000000 ) ) ;
#67 = CARTESIAN_POINT ( 'NONE',  ( 0.0000000000000000000, 0.0000000000000000000, 0.0000000000000000000 ) ) ;
#68 = DIRECTION ( 'NONE',  ( 0.0000000000000000000, 0.0000000000000000000, 1.000000000000000000 ) ) ;
#69 =( NAMED_UNIT ( * ) SI_UNIT ( $, .STERADIAN. ) SOLID_ANGLE_UNIT ( ) );
#70 = SURFACE_SIDE_STYLE ('',( #25 ) ) ;
#71 = FILL_AREA_STYLE_COLOUR ( '', #306 ) ;
#72 =( NAMED_UNIT ( * ) PLANE_ANGLE_UNIT ( ) SI_UNIT ( $, .RADIAN. ) );
#73 = DIRECTION ( 'NONE',  ( 0.0000000000000000000, 0.0000000000000000000, 1.000000000000000000 ) ) ;
#74 = CARTESIAN_POINT ( 'NONE',  ( 0.0000000000000000000, 0.0000000000000000000, 0.0000000000000000000 ) ) ;
#75 = FACE_OUTER_BOUND ( 'NONE', #299, .T. ) ;
#76 = PRODUCT_DEFINITION_CONTEXT ( 'detailed design', #42, 'design' ) ;
#77 = FILL_AREA_STYLE ('',( #71 ) ) ;
#78 = FACE_OUTER_BOUND ( 'NONE', #45, .T. ) ;
#79 = DIRECTION ( 'NONE',  ( 1.000000000000000000, 0.0000000000000000000, 0.0000000000000000000 ) ) ;
#80 =( NAMED_UNIT ( * ) PLANE_ANGLE_UNIT ( ) SI_UNIT ( $, .RADIAN. ) );
#81 = CARTESIAN_POINT ( 'NONE',  ( 100.0000000000000000, 3.061616997868383100E-016, -2.500000000000000000 ) ) ;
#82 = CARTESIAN_POINT ( 'NONE',  ( 100.0000000000000000, 4.898587196589412800E-016, -4.000000000000000000 ) ) ;
#83 = VECTOR ( 'NONE', #202, 1000.000000000000000 ) ;
#84 =( LENGTH_UNIT ( ) NAMED_UNIT ( * ) SI_UNIT ( .MILLI., .METRE. ) );
#85 = CARTESIAN_POINT ( 'NONE',  ( 111.3137084989847500, 0.0000000000000000000, 0.0000000000000000000 ) ) ;
#86 =( LENGTH_UNIT ( ) NAMED_UNIT ( * ) SI_UNIT ( .MILLI., .METRE. ) );
#87 = DIRECTION ( 'NONE',  ( 0.0000000000000000000, 0.0000000000000000000, 1.000000000000000000 ) ) ;
#88 = SURFACE_STYLE_USAGE ( .BOTH. , #94 ) ;
#89 = CARTESIAN_POINT ( 'NONE',  ( 111.3137084989847500, 0.0000000000000000000, 4.000000000000000000 ) ) ;
#90 = FILL_AREA_STYLE_COLOUR ( '', #5 ) ;
#91 = DIRECTION ( 'NONE',  ( -1.000000000000000000, -0.0000000000000000000, -0.0000000000000000000 ) ) ;
#92 =( NAMED_UNIT ( * ) SI_UNIT ( $, .STERADIAN. ) SOLID_ANGLE_UNIT ( ) );
#93 = CARTESIAN_POINT ( 'NONE',  ( 100.0000000000000000, 0.0000000000000000000, 4.000000000000000000 ) ) ;
#94 = SURFACE_SIDE_STYLE ('',( #256 ) ) ;
#95 = DIRECTION ( 'NONE',  ( -1.000000000000000000, -0.0000000000000000000, -0.0000000000000000000 ) ) ;
#96 = ADVANCED_FACE ( 'NONE', ( #9 ), #338, .F. ) ;
#97 = SURFACE_SIDE_STYLE ('',( #252 ) ) ;
#98 = SURFACE_STYLE_USAGE ( .BOTH. , #97 ) ;
#99 = DIRECTION ( 'NONE',  ( 0.0000000000000000000, 0.0000000000000000000, -1.000000000000000000 ) ) ;
#100 = FILL_AREA_STYLE ('',( #111 ) ) ;
#101 = DIRECTION ( 'NONE',  ( 0.0000000000000000000, 0.0000000000000000000, 1.000000000000000000 ) ) ;
#102 =( LENGTH_UNIT ( ) NAMED_UNIT ( * ) SI_UNIT ( .MILLI., .METRE. ) );
#103 = DIRECTION ( 'NONE',  ( 0.0000000000000000000, 0.0000000000000000000, -1.000000000000000000 ) ) ;
#104 = DIRECTION ( 'NONE',  ( 1.000000000000000000, 0.0000000000000000000, 0.0000000000000000000 ) ) ;
#105 =( NAMED_UNIT ( * ) PLANE_ANGLE_UNIT ( ) SI_UNIT ( $, .RADIAN. ) );
#106 = CARTESIAN_POINT ( 'NONE',  ( 0.0000000000000000000, 0.0000000000000000000, 0.0000000000000000000 ) ) ;
#107 = DIRECTION ( 'NONE',  ( 0.0000000000000000000, 0.0000000000000000000, -1.000000000000000000 ) ) ;
#108 = DIRECTION ( 'NONE',  ( 1.000000000000000000, 0.0000000000000000000, 0.0000000000000000000 ) ) ;
#109 = CARTESIAN_POINT ( 'NONE',  ( 100.0000000000000000, 0.0000000000000000000, 0.0000000000000000000 ) ) ;
#110 = CARTESIAN_POINT ( 'NONE',  ( 111.3137084989847500, 0.0000000000000000000, 0.0000000000000000000 ) ) ;
#111 = FILL_AREA_STYLE_COLOUR ( '', #295 ) ;
#112 = DIRECTION ( 'NONE',  ( 1.000000000000000000, 0.0000000000000000000, 0.0000000000000000000 ) ) ;
#113 = DIRECTION ( 'NONE',  ( -1.000000000000000000, -0.0000000000000000000, -0.0000000000000000000 ) ) ;
#114 = DIRECTION ( 'NONE',  ( -1.000000000000000000, -0.0000000000000000000, -0.0000000000000000000 ) ) ;
#115 = CARTESIAN_POINT ( 'NONE',  ( 111.3137084989847500, 4.898587196589412800E-016, -4.000000000000000000 ) ) ;
#116 = DIRECTION ( 'NONE',  ( 0.0000000000000000000, 0.0000000000000000000, -1.000000000000000000 ) ) ;
#117 = CARTESIAN_POINT ( 'NONE',  ( 100.0000000000000000, 0.0000000000000000000, 0.0000000000000000000 ) ) ;
#118 = FILL_AREA_STYLE ('',( #90 ) ) ;
#119 = CARTESIAN_POINT ( 'NONE',  ( 0.0000000000000000000, 4.898587196589412800E-016, -4.000000000000000000 ) ) ;
#120 = CARTESIAN_POINT ( 'NONE',  ( 100.0000000000000000, 0.0000000000000000000, 0.0000000000000000000 ) ) ;
#121 = DIRECTION ( 'NONE',  ( -1.000000000000000000, -0.0000000000000000000, -0.0000000000000000000 ) ) ;
#122 = AXIS2_PLACEMENT_3D ( 'NONE', #117, #263, #116 ) ;
#123 = CARTESIAN_POINT ( 'NONE',  ( 111.3137084989847500, 0.0000000000000000000, 0.0000000000000000000 ) ) ;
#124 =( NAMED_UNIT ( * ) SI_UNIT ( $, .STERADIAN. ) SOLID_ANGLE_UNIT ( ) );
#125 = MECHANICAL_DESIGN_GEOMETRIC_PRESENTATION_REPRESENTATION (  '', ( #129 ), #185 ) ;
#126 = CARTESIAN_POINT ( 'NONE',  ( 0.0000000000000000000, 0.0000000000000000000, 0.0000000000000000000 ) ) ;
#127 = ORIENTED_EDGE ( 'NONE', *, *, #194, .F. ) ;
#128 =( GEOMETRIC_REPRESENTATION_CONTEXT ( 3 ) GLOBAL_UNCERTAINTY_ASSIGNED_CONTEXT ( ( #333 ) ) GLOBAL_UNIT_ASSIGNED_CONTEXT ( ( #325, #165, #334 ) ) REPRESENTATION_CONTEXT ( 'NONE', 'WORKASPACE' ) );
#129 = STYLED_ITEM ( 'NONE', ( #219 ), #291 ) ;
#130 = STYLED_ITEM ( 'NONE', ( #18 ), #96 ) ;
#131 = PRESENTATION_LAYER_ASSIGNMENT (  '', '', ( #130 ) ) ;
#132 =( GEOMETRIC_REPRESENTATION_CONTEXT ( 3 ) GLOBAL_UNCERTAINTY_ASSIGNED_CONTEXT ( ( #31 ) ) GLOBAL_UNIT_ASSIGNED_CONTEXT ( ( #265, #138, #308 ) ) REPRESENTATION_CONTEXT ( 'NONE', 'WORKASPACE' ) );
#133 =( GEOMETRIC_REPRESENTATION_CONTEXT ( 3 ) GLOBAL_UNCERTAINTY_ASSIGNED_CONTEXT ( ( #253 ) ) GLOBAL_UNIT_ASSIGNED_CONTEXT ( ( #223, #230, #222 ) ) REPRESENTATION_CONTEXT ( 'NONE', 'WORKASPACE' ) );
#134 =( GEOMETRIC_REPRESENTATION_CONTEXT ( 3 ) GLOBAL_UNCERTAINTY_ASSIGNED_CONTEXT ( ( #14 ) ) GLOBAL_UNIT_ASSIGNED_CONTEXT ( ( #204, #171, #319 ) ) REPRESENTATION_CONTEXT ( 'NONE', 'WORKASPACE' ) );
#135 = MECHANICAL_DESIGN_GEOMETRIC_PRESENTATION_REPRESENTATION (  '', ( #210 ), #134 ) ;
#136 = VECTOR ( 'NONE', #113, 1000.000000000000000 ) ;
#137 = VERTEX_POINT ( 'NONE', #151 ) ;
#138 =( NAMED_UNIT ( * ) PLANE_ANGLE_UNIT ( ) SI_UNIT ( $, .RADIAN. ) );
#139 = STYLED_ITEM ( 'NONE', ( #7 ), #189 ) ;
#140 = CIRCLE ( 'NONE', #209, 2.500000000000000000 ) ;
#141 = COLOUR_RGB ( '',0.9686274509803921600, 1.000000000000000000, 0.9803921568627450600 ) ;
#142 = SURFACE_STYLE_FILL_AREA ( #173 ) ;
#143 = CARTESIAN_POINT ( 'NONE',  ( 0.0000000000000000000, 0.0000000000000000000, 4.000000000000000000 ) ) ;
#144 = ORIENTED_EDGE ( 'NONE', *, *, #192, .T. ) ;
#145 = SURFACE_SIDE_STYLE ('',( #297 ) ) ;
#146 = COLOUR_RGB ( '',0.0000000000000000000, 0.5843137254901961100, 0.9058823529411764700 ) ;
#147 = ORIENTED_EDGE ( 'NONE', *, *, #194, .T. ) ;
#148 = SURFACE_STYLE_FILL_AREA ( #331 ) ;
#149 = CARTESIAN_POINT ( 'NONE',  ( 0.0000000000000000000, 0.0000000000000000000, 2.500000000000000000 ) ) ;
#150 = ORIENTED_EDGE ( 'NONE', *, *, #199, .T. ) ;
#151 = CARTESIAN_POINT ( 'NONE',  ( 0.0000000000000000000, 3.061616997868383100E-016, -2.500000000000000000 ) ) ;
#152 = ORIENTED_EDGE ( 'NONE', *, *, #192, .F. ) ;
#153 = DIRECTION ( 'NONE',  ( 1.000000000000000000, 0.0000000000000000000, 0.0000000000000000000 ) ) ;
#154 = ORIENTED_EDGE ( 'NONE', *, *, #201, .F. ) ;
#155 = ORIENTED_EDGE ( 'NONE', *, *, #201, .T. ) ;
#156 = FILL_AREA_STYLE ('',( #268 ) ) ;
#157 = CLOSED_SHELL ( 'NONE', ( #189, #217, #291, #16, #96, #160 ) ) ;
#158 = COLOUR_RGB ( '',0.9686274509803921600, 1.000000000000000000, 0.9803921568627450600 ) ;
#159 = EDGE_LOOP ( 'NONE', ( #292, #20, #152, #314 ) ) ;
#160 = ADVANCED_FACE ( 'NONE', ( #310, #78 ), #235, .T. ) ;
#161 = VERTEX_POINT ( 'NONE', #149 ) ;
#162 = AXIS2_PLACEMENT_3D ( 'NONE', #110, #114, #101 ) ;
#163 = DIRECTION ( 'NONE',  ( -1.000000000000000000, -0.0000000000000000000, -0.0000000000000000000 ) ) ;
#164 = FILL_AREA_STYLE_COLOUR ( '', #141 ) ;
#165 =( NAMED_UNIT ( * ) PLANE_ANGLE_UNIT ( ) SI_UNIT ( $, .RADIAN. ) );
#166 = VERTEX_POINT ( 'NONE', #169 ) ;
#167 = SURFACE_STYLE_USAGE ( .BOTH. , #145 ) ;
#168 = DIRECTION ( 'NONE',  ( 0.0000000000000000000, 0.0000000000000000000, -1.000000000000000000 ) ) ;
#169 = CARTESIAN_POINT ( 'NONE',  ( 100.0000000000000000, 0.0000000000000000000, 2.500000000000000000 ) ) ;
#170 = AXIS2_PLACEMENT_3D ( 'NONE', #246, #248, #247 ) ;
#171 =( NAMED_UNIT ( * ) PLANE_ANGLE_UNIT ( ) SI_UNIT ( $, .RADIAN. ) );
#172 = PRODUCT_DEFINITION_FORMATION_WITH_SPECIFIED_SOURCE ( 'ANY', '', #1, .NOT_KNOWN. ) ;
#173 = FILL_AREA_STYLE ('',( #244 ) ) ;
#174 = PRODUCT_DEFINITION ( 'UNKNOWN', '', #172, #76 ) ;
#175 = AXIS2_PLACEMENT_3D ( 'NONE', #123, #163, #232 ) ;
#176 = AXIS2_PLACEMENT_3D ( 'NONE', #237, #243, #249 ) ;
#177 = AXIS2_PLACEMENT_3D ( 'NONE', #85, #95, #87 ) ;
#178 = EDGE_LOOP ( 'NONE', ( #144, #155 ) ) ;
#179 = PRESENTATION_STYLE_ASSIGNMENT (( #203 ) ) ;
#180 = PRODUCT_RELATED_PRODUCT_CATEGORY ( 'part', '', ( #1 ) ) ;
#181 =( GEOMETRIC_REPRESENTATION_CONTEXT ( 3 ) GLOBAL_UNCERTAINTY_ASSIGNED_CONTEXT ( ( #227 ) ) GLOBAL_UNIT_ASSIGNED_CONTEXT ( ( #52, #49, #55 ) ) REPRESENTATION_CONTEXT ( 'NONE', 'WORKASPACE' ) );
#182 = MECHANICAL_DESIGN_GEOMETRIC_PRESENTATION_REPRESENTATION (  '', ( #259 ), #262 ) ;
#183 = PRODUCT_DEFINITION ( 'UNKNOWN', '', #294, #2 ) ;
#184 = ORIENTED_EDGE ( 'NONE', *, *, #26, .F. ) ;
#185 =( GEOMETRIC_REPRESENTATION_CONTEXT ( 3 ) GLOBAL_UNCERTAINTY_ASSIGNED_CONTEXT ( ( #321 ) ) GLOBAL_UNIT_ASSIGNED_CONTEXT ( ( #84, #80, #65 ) ) REPRESENTATION_CONTEXT ( 'NONE', 'WORKASPACE' ) );
#186 = PRESENTATION_LAYER_ASSIGNMENT (  '', '', ( #259 ) ) ;
#187 = AXIS2_PLACEMENT_3D ( 'NONE', #74, #73, #79 ) ;
#188 = COLOUR_RGB ( '',0.9686274509803921600, 1.000000000000000000, 0.9803921568627450600 ) ;
#189 = ADVANCED_FACE ( 'NONE', ( #320 ), #309, .F. ) ;
#190 = EDGE_CURVE ( 'NONE', #166, #161, #231, .T. ) ;
#191 = PRESENTATION_LAYER_ASSIGNMENT (  '', '', ( #242 ) ) ;
#192 = EDGE_CURVE ( 'NONE', #161, #137, #218, .T. ) ;
#193 = EDGE_CURVE ( 'NONE', #17, #19, #285, .T. ) ;
#194 = EDGE_CURVE ( 'NONE', #19, #17, #3, .T. ) ;
#195 = EDGE_CURVE ( 'NONE', #166, #301, #266, .T. ) ;
#196 = EDGE_CURVE ( 'NONE', #220, #290, #255, .T. ) ;
#197 = SURFACE_SIDE_STYLE ('',( #328 ) ) ;
#198 = EDGE_CURVE ( 'NONE', #220, #19, #313, .T. ) ;
#199 = EDGE_CURVE ( 'NONE', #290, #220, #311, .T. ) ;
#200 = EDGE_CURVE ( 'NONE', #301, #137, #216, .T. ) ;
#201 = EDGE_CURVE ( 'NONE', #137, #161, #10, .T. ) ;
#202 = DIRECTION ( 'NONE',  ( -1.000000000000000000, -0.0000000000000000000, -0.0000000000000000000 ) ) ;
#203 = SURFACE_STYLE_USAGE ( .BOTH. , #197 ) ;
#204 =( LENGTH_UNIT ( ) NAMED_UNIT ( * ) SI_UNIT ( .MILLI., .METRE. ) );
#205 = CARTESIAN_POINT ( 'NONE',  ( 111.3137084989847500, 0.0000000000000000000, 2.500000000000000000 ) ) ;
#206 = AXIS2_PLACEMENT_3D ( 'NONE', #251, #240, #250 ) ;
#207 = FACE_BOUND ( 'NONE', #178, .T. ) ;
#208 = PRESENTATION_LAYER_ASSIGNMENT (  '', '', ( #281 ) ) ;
#209 = AXIS2_PLACEMENT_3D ( 'NONE', #327, #322, #168 ) ;
#210 = STYLED_ITEM ( 'NONE', ( #317 ), #160 ) ;
#211 = UNCERTAINTY_MEASURE_WITH_UNIT (LENGTH_MEASURE( 1.000000000000000100E-005 ), #102, 'distance_accuracy_value', 'NONE');
#212 = MECHANICAL_DESIGN_GEOMETRIC_PRESENTATION_REPRESENTATION (  '', ( #281 ), #132 ) ;
#213 = AXIS2_PLACEMENT_3D ( 'NONE', #126, #340, #326 ) ;
#214 = SHAPE_DEFINITION_REPRESENTATION ( #305, #43 ) ;
#215 = ORIENTED_EDGE ( 'NONE', *, *, #198, .F. ) ;
#216 = LINE ( 'NONE', #238, #136 ) ;
#217 = ADVANCED_FACE ( 'NONE', ( #11 ), #4, .T. ) ;
#218 = CIRCLE ( 'NONE', #176, 2.500000000000000000 ) ;
#219 = PRESENTATION_STYLE_ASSIGNMENT (( #88 ) ) ;
#220 = VERTEX_POINT ( 'NONE', #82 ) ;
#221 = SURFACE_SIDE_STYLE ('',( #148 ) ) ;
#222 =( NAMED_UNIT ( * ) SI_UNIT ( $, .STERADIAN. ) SOLID_ANGLE_UNIT ( ) );
#223 =( LENGTH_UNIT ( ) NAMED_UNIT ( * ) SI_UNIT ( .MILLI., .METRE. ) );
#224 = DIRECTION ( 'NONE',  ( 0.0000000000000000000, 0.0000000000000000000, 1.000000000000000000 ) ) ;
#225 = SURFACE_STYLE_USAGE ( .BOTH. , #228 ) ;
#226 = ORIENTED_EDGE ( 'NONE', *, *, #198, .T. ) ;
#227 = UNCERTAINTY_MEASURE_WITH_UNIT (LENGTH_MEASURE( 1.000000000000000100E-005 ), #52, 'distance_accuracy_value', 'NONE');
#228 = SURFACE_SIDE_STYLE ('',( #22 ) ) ;
#229 =( GEOMETRIC_REPRESENTATION_CONTEXT ( 3 ) GLOBAL_UNCERTAINTY_ASSIGNED_CONTEXT ( ( #36 ) ) GLOBAL_UNIT_ASSIGNED_CONTEXT ( ( #332, #330, #124 ) ) REPRESENTATION_CONTEXT ( 'NONE', 'WORKASPACE' ) );
#230 =( NAMED_UNIT ( * ) PLANE_ANGLE_UNIT ( ) SI_UNIT ( $, .RADIAN. ) );
#231 = LINE ( 'NONE', #205, #83 ) ;
#232 = DIRECTION ( 'NONE',  ( 0.0000000000000000000, 0.0000000000000000000, 1.000000000000000000 ) ) ;
#233 = DIRECTION ( 'NONE',  ( 0.0000000000000000000, 0.0000000000000000000, -1.000000000000000000 ) ) ;
#234 = CARTESIAN_POINT ( 'NONE',  ( 100.0000000000000000, 0.0000000000000000000, 0.0000000000000000000 ) ) ;
#235 = PLANE ( 'NONE',  #28 ) ;
#236 = FILL_AREA_STYLE ('',( #324 ) ) ;
#237 = CARTESIAN_POINT ( 'NONE',  ( 0.0000000000000000000, 0.0000000000000000000, 0.0000000000000000000 ) ) ;
#238 = CARTESIAN_POINT ( 'NONE',  ( 111.3137084989847500, 3.061616997868383100E-016, -2.500000000000000000 ) ) ;
#239 = SURFACE_STYLE_USAGE ( .BOTH. , #221 ) ;
#240 = DIRECTION ( 'NONE',  ( 1.000000000000000000, 0.0000000000000000000, 0.0000000000000000000 ) ) ;
#241 = MECHANICAL_DESIGN_GEOMETRIC_PRESENTATION_REPRESENTATION (  '', ( #130 ), #133 ) ;
#242 = STYLED_ITEM ( 'NONE', ( #289 ), #16 ) ;
#243 = DIRECTION ( 'NONE',  ( 1.000000000000000000, 0.0000000000000000000, 0.0000000000000000000 ) ) ;
#244 = FILL_AREA_STYLE_COLOUR ( '', #188 ) ;
#245 = PLANE ( 'NONE',  #213 ) ;
#246 = CARTESIAN_POINT ( 'NONE',  ( 0.0000000000000000000, 0.0000000000000000000, 0.0000000000000000000 ) ) ;
#247 = DIRECTION ( 'NONE',  ( 0.0000000000000000000, 0.0000000000000000000, -1.000000000000000000 ) ) ;
#248 = DIRECTION ( 'NONE',  ( 1.000000000000000000, 0.0000000000000000000, 0.0000000000000000000 ) ) ;
#249 = DIRECTION ( 'NONE',  ( 0.0000000000000000000, 0.0000000000000000000, -1.000000000000000000 ) ) ;
#250 = DIRECTION ( 'NONE',  ( 0.0000000000000000000, 0.0000000000000000000, -1.000000000000000000 ) ) ;
#251 = CARTESIAN_POINT ( 'NONE',  ( 0.0000000000000000000, 0.0000000000000000000, 0.0000000000000000000 ) ) ;
#252 = SURFACE_STYLE_FILL_AREA ( #100 ) ;
#253 = UNCERTAINTY_MEASURE_WITH_UNIT (LENGTH_MEASURE( 1.000000000000000100E-005 ), #223, 'distance_accuracy_value', 'NONE');
#254 = VECTOR ( 'NONE', #91, 1000.000000000000000 ) ;
#255 = CIRCLE ( 'NONE', #24, 4.000000000000000000 ) ;
#256 = SURFACE_STYLE_FILL_AREA ( #118 ) ;
#257 = VECTOR ( 'NONE', #318, 1000.000000000000000 ) ;
#258 = ADVANCED_BREP_SHAPE_REPRESENTATION ( '', ( #34, #187 ), #29 ) ;
#259 = STYLED_ITEM ( 'NONE', ( #6 ), #217 ) ;
#260 = AXIS2_PLACEMENT_3D ( 'NONE', #106, #104, #99 ) ;
#261 = AXIS2_PLACEMENT_3D ( 'NONE', #109, #108, #103 ) ;
#262 =( GEOMETRIC_REPRESENTATION_CONTEXT ( 3 ) GLOBAL_UNCERTAINTY_ASSIGNED_CONTEXT ( ( #211 ) ) GLOBAL_UNIT_ASSIGNED_CONTEXT ( ( #102, #105, #92 ) ) REPRESENTATION_CONTEXT ( 'NONE', 'WORKASPACE' ) );
#263 = DIRECTION ( 'NONE',  ( 1.000000000000000000, 0.0000000000000000000, 0.0000000000000000000 ) ) ;
#264 = SURFACE_SIDE_STYLE ('',( #142 ) ) ;
#265 =( LENGTH_UNIT ( ) NAMED_UNIT ( * ) SI_UNIT ( .MILLI., .METRE. ) );
#266 = CIRCLE ( 'NONE', #122, 2.500000000000000000 ) ;
#267 = ITEM_DEFINED_TRANSFORMATION ( 'NONE', 'NONE', #274,  #187 ) ;
#268 = FILL_AREA_STYLE_COLOUR ( '', #146 ) ;
#269 = CYLINDRICAL_SURFACE ( 'NONE', #177, 4.000000000000000000 ) ;
#270 = PRESENTATION_LAYER_ASSIGNMENT (  '', '', ( #139 ) ) ;
#271 = ORIENTED_EDGE ( 'NONE', *, *, #196, .T. ) ;
#272 = PRODUCT_DEFINITION_SHAPE ( 'NONE', 'NONE',  #341 ) ;
#273 = EDGE_LOOP ( 'NONE', ( #286, #127 ) ) ;
#274 = AXIS2_PLACEMENT_3D ( 'NONE', #64, #60, #53 ) ;
#275 =( GEOMETRIC_REPRESENTATION_CONTEXT ( 3 ) GLOBAL_UNCERTAINTY_ASSIGNED_CONTEXT ( ( #316 ) ) GLOBAL_UNIT_ASSIGNED_CONTEXT ( ( #59, #61, #58 ) ) REPRESENTATION_CONTEXT ( 'NONE', 'WORKASPACE' ) );
#276 = PRESENTATION_LAYER_ASSIGNMENT (  '', '', ( #129 ) ) ;
#277 = ORIENTED_EDGE ( 'NONE', *, *, #26, .T. ) ;
#278 = MECHANICAL_DESIGN_GEOMETRIC_PRESENTATION_REPRESENTATION (  '', ( #139 ), #128 ) ;
#279 = AXIS2_PLACEMENT_3D ( 'NONE', #339, #121, #224 ) ;
#280 = PRESENTATION_LAYER_ASSIGNMENT (  '', '', ( #210 ) ) ;
#281 = STYLED_ITEM ( 'NONE', ( #179 ), #34 ) ;
#282 = MECHANICAL_DESIGN_GEOMETRIC_PRESENTATION_REPRESENTATION (  '', ( #242 ), #229 ) ;
#283 = MECHANICAL_DESIGN_GEOMETRIC_PRESENTATION_REPRESENTATION (  '', ( #296 ), #275 ) ;
#284 = EDGE_CURVE ( 'NONE', #290, #17, #300, .T. ) ;
#285 = CIRCLE ( 'NONE', #170, 4.000000000000000000 ) ;
#286 = ORIENTED_EDGE ( 'NONE', *, *, #193, .F. ) ;
#287 = ORIENTED_EDGE ( 'NONE', *, *, #200, .F. ) ;
#288 = PRESENTATION_LAYER_ASSIGNMENT (  '', '', ( #296 ) ) ;
#289 = PRESENTATION_STYLE_ASSIGNMENT (( #239 ) ) ;
#290 = VERTEX_POINT ( 'NONE', #93 ) ;
#291 = ADVANCED_FACE ( 'NONE', ( #75 ), #269, .T. ) ;
#292 = ORIENTED_EDGE ( 'NONE', *, *, #195, .T. ) ;
#293 = PRODUCT_RELATED_PRODUCT_CATEGORY ( 'part', '', ( #15 ) ) ;
#294 = PRODUCT_DEFINITION_FORMATION_WITH_SPECIFIED_SOURCE ( 'ANY', '', #15, .NOT_KNOWN. ) ;
#295 = COLOUR_RGB ( '',0.9686274509803921600, 1.000000000000000000, 0.9803921568627450600 ) ;
#296 = STYLED_ITEM ( 'NONE', ( #336 ), #258 ) ;
#297 = SURFACE_STYLE_FILL_AREA ( #315 ) ;
#298 = ORIENTED_EDGE ( 'NONE', *, *, #190, .T. ) ;
#299 = EDGE_LOOP ( 'NONE', ( #215, #8, #329, #337 ) ) ;
#300 = LINE ( 'NONE', #89, #254 ) ;
#301 = VERTEX_POINT ( 'NONE', #81 ) ;
#302 = ORIENTED_EDGE ( 'NONE', *, *, #196, .F. ) ;
#303 = EDGE_LOOP ( 'NONE', ( #37, #184 ) ) ;
#304 = FACE_OUTER_BOUND ( 'NONE', #273, .T. ) ;
#305 = PRODUCT_DEFINITION_SHAPE ( 'NONE', 'NONE',  #174 ) ;
#306 = COLOUR_RGB ( '',0.9686274509803921600, 1.000000000000000000, 0.9803921568627450600 ) ;
#307 = AXIS2_PLACEMENT_3D ( 'NONE', #67, #68, #66 ) ;
#308 =( NAMED_UNIT ( * ) SI_UNIT ( $, .STERADIAN. ) SOLID_ANGLE_UNIT ( ) );
#309 = CYLINDRICAL_SURFACE ( 'NONE', #175, 2.500000000000000000 ) ;
#310 = FACE_BOUND ( 'NONE', #303, .T. ) ;
#311 = CIRCLE ( 'NONE', #261, 4.000000000000000000 ) ;
#312 = SHAPE_REPRESENTATION ( 'TU0805C-100.step_TU3076 Tube_0805C', ( #187 ), #29 ) ;
#313 = LINE ( 'NONE', #115, #257 ) ;
#314 = ORIENTED_EDGE ( 'NONE', *, *, #190, .F. ) ;
#315 = FILL_AREA_STYLE ('',( #164 ) ) ;
#316 = UNCERTAINTY_MEASURE_WITH_UNIT (LENGTH_MEASURE( 1.000000000000000100E-005 ), #59, 'distance_accuracy_value', 'NONE');
#317 = PRESENTATION_STYLE_ASSIGNMENT (( #167 ) ) ;
#318 = DIRECTION ( 'NONE',  ( -1.000000000000000000, -0.0000000000000000000, -0.0000000000000000000 ) ) ;
#319 =( NAMED_UNIT ( * ) SI_UNIT ( $, .STERADIAN. ) SOLID_ANGLE_UNIT ( ) );
#320 = FACE_OUTER_BOUND ( 'NONE', #159, .T. ) ;
#321 = UNCERTAINTY_MEASURE_WITH_UNIT (LENGTH_MEASURE( 1.000000000000000100E-005 ), #84, 'distance_accuracy_value', 'NONE');
#322 = DIRECTION ( 'NONE',  ( 1.000000000000000000, 0.0000000000000000000, 0.0000000000000000000 ) ) ;
#323 = SURFACE_STYLE_USAGE ( .BOTH. , #264 ) ;
#324 = FILL_AREA_STYLE_COLOUR ( '', #21 ) ;
#325 =( LENGTH_UNIT ( ) NAMED_UNIT ( * ) SI_UNIT ( .MILLI., .METRE. ) );
#326 = DIRECTION ( 'NONE',  ( 0.0000000000000000000, 0.0000000000000000000, -1.000000000000000000 ) ) ;
#327 = CARTESIAN_POINT ( 'NONE',  ( 100.0000000000000000, 0.0000000000000000000, 0.0000000000000000000 ) ) ;
#328 = SURFACE_STYLE_FILL_AREA ( #156 ) ;
#329 = ORIENTED_EDGE ( 'NONE', *, *, #284, .T. ) ;
#330 =( NAMED_UNIT ( * ) PLANE_ANGLE_UNIT ( ) SI_UNIT ( $, .RADIAN. ) );
#331 = FILL_AREA_STYLE ('',( #335 ) ) ;
#332 =( LENGTH_UNIT ( ) NAMED_UNIT ( * ) SI_UNIT ( .MILLI., .METRE. ) );
#333 = UNCERTAINTY_MEASURE_WITH_UNIT (LENGTH_MEASURE( 1.000000000000000100E-005 ), #325, 'distance_accuracy_value', 'NONE');
#334 =( NAMED_UNIT ( * ) SI_UNIT ( $, .STERADIAN. ) SOLID_ANGLE_UNIT ( ) );
#335 = FILL_AREA_STYLE_COLOUR ( '', #158 ) ;
#336 = PRESENTATION_STYLE_ASSIGNMENT (( #63 ) ) ;
#337 = ORIENTED_EDGE ( 'NONE', *, *, #193, .T. ) ;
#338 = CYLINDRICAL_SURFACE ( 'NONE', #279, 2.500000000000000000 ) ;
#339 = CARTESIAN_POINT ( 'NONE',  ( 111.3137084989847500, 0.0000000000000000000, 0.0000000000000000000 ) ) ;
#340 = DIRECTION ( 'NONE',  ( 1.000000000000000000, 0.0000000000000000000, 0.0000000000000000000 ) ) ;
#341 = NEXT_ASSEMBLY_USAGE_OCCURRENCE ( 'NAUO1', ' ', ' ', #174, #183, $ ) ;
ENDSEC;
END-ISO-10303-21;
