ISO-10303-21;
HEADER;
FILE_DESCRIPTION (( 'STEP AP214' ),
    '1' );
FILE_NAME ('TU1065BU-100.step.step',
    '2011-12-20T13:42:28',
    ( 'SysAdmin' ),
    ( 'SolidWorks' ),
    'SwSTEP 2.0',
    'SolidWorks 2012',
    '' );
FILE_SCHEMA (( 'AUTOMOTIVE_DESIGN' ));
ENDSEC;

DATA;
#1 = ORIENTED_EDGE ( 'NONE', *, *, #22, .T. ) ;
#2 = EDGE_LOOP ( 'NONE', ( #15, #26, #3, #64 ) ) ;
#3 = ORIENTED_EDGE ( 'NONE', *, *, #58, .T. ) ;
#4 = ORIENTED_EDGE ( 'NONE', *, *, #7, .T. ) ;
#5 = ORIENTED_EDGE ( 'NONE', *, *, #48, .F. ) ;
#6 = STYLED_ITEM ( 'NONE', ( #9 ), #27 ) ;
#7 = EDGE_CURVE ( 'NONE', #50, #19, #88, .T. ) ;
#8 = SURFACE_STYLE_USAGE ( .BOTH. , #14 ) ;
#9 = PRESENTATION_STYLE_ASSIGNMENT (( #8 ) ) ;
#10 =( LENGTH_UNIT ( ) NAMED_UNIT ( * ) SI_UNIT ( .MILLI., .METRE. ) );
#11 = FACE_OUTER_BOUND ( 'NONE', #2, .T. ) ;
#12 = MECHANICAL_DESIGN_GEOMETRIC_PRESENTATION_REPRESENTATION (  '', ( #131 ), #302 ) ;
#13 = ADVANCED_FACE ( 'NONE', ( #87 ), #91, .T. ) ;
#14 = SURFACE_SIDE_STYLE ('',( #71 ) ) ;
#15 = ORIENTED_EDGE ( 'NONE', *, *, #29, .F. ) ;
#16 = CLOSED_SHELL ( 'NONE', ( #43, #45, #13, #54, #27, #65 ) ) ;
#17 = ORIENTED_EDGE ( 'NONE', *, *, #22, .F. ) ;
#18 = VERTEX_POINT ( 'NONE', #99 ) ;
#19 = VERTEX_POINT ( 'NONE', #94 ) ;
#20 = EDGE_LOOP ( 'NONE', ( #56, #32 ) ) ;
#21 = ORIENTED_EDGE ( 'NONE', *, *, #29, .T. ) ;
#22 = EDGE_CURVE ( 'NONE', #18, #41, #101, .T. ) ;
#23 = ORIENTED_EDGE ( 'NONE', *, *, #49, .T. ) ;
#24 = EDGE_CURVE ( 'NONE', #36, #38, #86, .T. ) ;
#25 = ORIENTED_EDGE ( 'NONE', *, *, #55, .T. ) ;
#26 = ORIENTED_EDGE ( 'NONE', *, *, #24, .T. ) ;
#27 = ADVANCED_FACE ( 'NONE', ( #11 ), #125, .F. ) ;
#28 = EDGE_LOOP ( 'NONE', ( #5, #33, #60, #4 ) ) ;
#29 = EDGE_CURVE ( 'NONE', #36, #41, #123, .T. ) ;
#30 = ORIENTED_EDGE ( 'NONE', *, *, #49, .F. ) ;
#31 = EDGE_CURVE ( 'NONE', #42, #50, #148, .T. ) ;
#32 = ORIENTED_EDGE ( 'NONE', *, *, #47, .F. ) ;
#33 = ORIENTED_EDGE ( 'NONE', *, *, #63, .F. ) ;
#34 = ORIENTED_EDGE ( 'NONE', *, *, #37, .T. ) ;
#35 = EDGE_LOOP ( 'NONE', ( #34, #21, #17, #59 ) ) ;
#36 = VERTEX_POINT ( 'NONE', #142 ) ;
#37 = EDGE_CURVE ( 'NONE', #38, #36, #144, .T. ) ;
#38 = VERTEX_POINT ( 'NONE', #129 ) ;
#39 = MANIFOLD_SOLID_BREP ( 'Tube', #16 ) ;
#40 = COLOUR_RGB ( '',0.2470588235294117800, 0.6470588235294118000, 1.000000000000000000 ) ;
#41 = VERTEX_POINT ( 'NONE', #298 ) ;
#42 = VERTEX_POINT ( 'NONE', #296 ) ;
#43 = ADVANCED_FACE ( 'NONE', ( #295 ), #275, .F. ) ;
#44 = ORIENTED_EDGE ( 'NONE', *, *, #63, .T. ) ;
#45 = ADVANCED_FACE ( 'NONE', ( #293 ), #299, .T. ) ;
#46 = ORIENTED_EDGE ( 'NONE', *, *, #47, .T. ) ;
#47 = EDGE_CURVE ( 'NONE', #19, #50, #276, .T. ) ;
#48 = EDGE_CURVE ( 'NONE', #57, #19, #160, .T. ) ;
#49 = EDGE_CURVE ( 'NONE', #57, #42, #154, .T. ) ;
#50 = VERTEX_POINT ( 'NONE', #149 ) ;
#51 = ORIENTED_EDGE ( 'NONE', *, *, #48, .T. ) ;
#52 = EDGE_LOOP ( 'NONE', ( #1, #25 ) ) ;
#53 = EDGE_LOOP ( 'NONE', ( #66, #68 ) ) ;
#54 = ADVANCED_FACE ( 'NONE', ( #226, #162 ), #164, .F. ) ;
#55 = EDGE_CURVE ( 'NONE', #41, #18, #201, .T. ) ;
#56 = ORIENTED_EDGE ( 'NONE', *, *, #7, .F. ) ;
#57 = VERTEX_POINT ( 'NONE', #206 ) ;
#58 = EDGE_CURVE ( 'NONE', #38, #18, #195, .T. ) ;
#59 = ORIENTED_EDGE ( 'NONE', *, *, #58, .F. ) ;
#60 = ORIENTED_EDGE ( 'NONE', *, *, #31, .T. ) ;
#61 = ORIENTED_EDGE ( 'NONE', *, *, #31, .F. ) ;
#62 = EDGE_LOOP ( 'NONE', ( #30, #51, #46, #61 ) ) ;
#63 = EDGE_CURVE ( 'NONE', #42, #57, #196, .T. ) ;
#64 = ORIENTED_EDGE ( 'NONE', *, *, #55, .F. ) ;
#65 = ADVANCED_FACE ( 'NONE', ( #202, #189 ), #190, .T. ) ;
#66 = ORIENTED_EDGE ( 'NONE', *, *, #37, .F. ) ;
#67 = EDGE_LOOP ( 'NONE', ( #44, #23 ) ) ;
#68 = ORIENTED_EDGE ( 'NONE', *, *, #24, .F. ) ;
#69 = FILL_AREA_STYLE_COLOUR ( '', #40 ) ;
#70 =( NAMED_UNIT ( * ) PLANE_ANGLE_UNIT ( ) SI_UNIT ( $, .RADIAN. ) );
#71 = SURFACE_STYLE_FILL_AREA ( #72 ) ;
#72 = FILL_AREA_STYLE ('',( #69 ) ) ;
#73 =( LENGTH_UNIT ( ) NAMED_UNIT ( * ) SI_UNIT ( .MILLI., .METRE. ) );
#74 = DIRECTION ( 'NONE',  ( 0.0000000000000000000, 0.0000000000000000000, 1.000000000000000000 ) ) ;
#75 = MECHANICAL_DESIGN_GEOMETRIC_PRESENTATION_REPRESENTATION (  '', ( #6 ), #124 ) ;
#76 = DIRECTION ( 'NONE',  ( 0.0000000000000000000, 0.0000000000000000000, -1.000000000000000000 ) ) ;
#77 = DIRECTION ( 'NONE',  ( 1.000000000000000000, 0.0000000000000000000, 0.0000000000000000000 ) ) ;
#78 = CARTESIAN_POINT ( 'NONE',  ( 100.0000000000000000, 0.0000000000000000000, 0.0000000000000000000 ) ) ;
#79 = AXIS2_PLACEMENT_3D ( 'NONE', #78, #77, #76 ) ;
#80 =( NAMED_UNIT ( * ) PLANE_ANGLE_UNIT ( ) SI_UNIT ( $, .RADIAN. ) );
#81 = DIRECTION ( 'NONE',  ( 0.0000000000000000000, 0.0000000000000000000, -1.000000000000000000 ) ) ;
#82 = DIRECTION ( 'NONE',  ( 1.000000000000000000, 0.0000000000000000000, 0.0000000000000000000 ) ) ;
#83 = CARTESIAN_POINT ( 'NONE',  ( 0.0000000000000000000, 0.0000000000000000000, 0.0000000000000000000 ) ) ;
#84 = AXIS2_PLACEMENT_3D ( 'NONE', #83, #82, #81 ) ;
#85 = PRESENTATION_LAYER_ASSIGNMENT (  '', '', ( #6 ) ) ;
#86 = CIRCLE ( 'NONE', #79, 3.250000000000000400 ) ;
#87 = FACE_OUTER_BOUND ( 'NONE', #28, .T. ) ;
#88 = CIRCLE ( 'NONE', #89, 5.000000000000000000 ) ;
#89 = AXIS2_PLACEMENT_3D ( 'NONE', #114, #97, #96 ) ;
#90 = FILL_AREA_STYLE ('',( #93 ) ) ;
#91 = CYLINDRICAL_SURFACE ( 'NONE', #92, 5.000000000000000000 ) ;
#92 = AXIS2_PLACEMENT_3D ( 'NONE', #95, #100, #74 ) ;
#93 = FILL_AREA_STYLE_COLOUR ( '', #98 ) ;
#94 = CARTESIAN_POINT ( 'NONE',  ( 0.0000000000000000000, 6.123233995736765300E-016, -5.000000000000000000 ) ) ;
#95 = CARTESIAN_POINT ( 'NONE',  ( 114.1421356237309700, 0.0000000000000000000, 0.0000000000000000000 ) ) ;
#96 = DIRECTION ( 'NONE',  ( 0.0000000000000000000, 0.0000000000000000000, -1.000000000000000000 ) ) ;
#97 = DIRECTION ( 'NONE',  ( 1.000000000000000000, 0.0000000000000000000, 0.0000000000000000000 ) ) ;
#98 = COLOUR_RGB ( '',0.2470588235294117800, 0.6470588235294118000, 1.000000000000000000 ) ;
#99 = CARTESIAN_POINT ( 'NONE',  ( 0.0000000000000000000, 0.0000000000000000000, 3.250000000000000400 ) ) ;
#100 = DIRECTION ( 'NONE',  ( -1.000000000000000000, -0.0000000000000000000, -0.0000000000000000000 ) ) ;
#101 = CIRCLE ( 'NONE', #84, 3.250000000000000400 ) ;
#102 =( GEOMETRIC_REPRESENTATION_CONTEXT ( 3 ) GLOBAL_UNCERTAINTY_ASSIGNED_CONTEXT ( ( #103 ) ) GLOBAL_UNIT_ASSIGNED_CONTEXT ( ( #106, #105, #104 ) ) REPRESENTATION_CONTEXT ( 'NONE', 'WORKASPACE' ) );
#103 = UNCERTAINTY_MEASURE_WITH_UNIT (LENGTH_MEASURE( 1.000000000000000100E-005 ), #106, 'distance_accuracy_value', 'NONE');
#104 =( NAMED_UNIT ( * ) SI_UNIT ( $, .STERADIAN. ) SOLID_ANGLE_UNIT ( ) );
#105 =( NAMED_UNIT ( * ) PLANE_ANGLE_UNIT ( ) SI_UNIT ( $, .RADIAN. ) );
#106 =( LENGTH_UNIT ( ) NAMED_UNIT ( * ) SI_UNIT ( .MILLI., .METRE. ) );
#107 = MECHANICAL_DESIGN_GEOMETRIC_PRESENTATION_REPRESENTATION (  '', ( #109 ), #102 ) ;
#108 = PRESENTATION_LAYER_ASSIGNMENT (  '', '', ( #109 ) ) ;
#109 = STYLED_ITEM ( 'NONE', ( #110 ), #13 ) ;
#110 = PRESENTATION_STYLE_ASSIGNMENT (( #111 ) ) ;
#111 = SURFACE_STYLE_USAGE ( .BOTH. , #112 ) ;
#112 = SURFACE_SIDE_STYLE ('',( #113 ) ) ;
#113 = SURFACE_STYLE_FILL_AREA ( #90 ) ;
#114 = CARTESIAN_POINT ( 'NONE',  ( 0.0000000000000000000, 0.0000000000000000000, 0.0000000000000000000 ) ) ;
#115 = AXIS2_PLACEMENT_3D ( 'NONE', #118, #119, #122 ) ;
#116 = UNCERTAINTY_MEASURE_WITH_UNIT (LENGTH_MEASURE( 1.000000000000000100E-005 ), #10, 'distance_accuracy_value', 'NONE');
#117 = CARTESIAN_POINT ( 'NONE',  ( 114.1421356237309700, 3.980102097228897200E-016, -3.250000000000000400 ) ) ;
#118 = CARTESIAN_POINT ( 'NONE',  ( 114.1421356237309700, 0.0000000000000000000, 0.0000000000000000000 ) ) ;
#119 = DIRECTION ( 'NONE',  ( -1.000000000000000000, -0.0000000000000000000, -0.0000000000000000000 ) ) ;
#120 =( NAMED_UNIT ( * ) SI_UNIT ( $, .STERADIAN. ) SOLID_ANGLE_UNIT ( ) );
#121 = UNCERTAINTY_MEASURE_WITH_UNIT (LENGTH_MEASURE( 1.000000000000000100E-005 ), #73, 'distance_accuracy_value', 'NONE');
#122 = DIRECTION ( 'NONE',  ( 0.0000000000000000000, 0.0000000000000000000, 1.000000000000000000 ) ) ;
#123 = LINE ( 'NONE', #117, #127 ) ;
#124 =( GEOMETRIC_REPRESENTATION_CONTEXT ( 3 ) GLOBAL_UNCERTAINTY_ASSIGNED_CONTEXT ( ( #121 ) ) GLOBAL_UNIT_ASSIGNED_CONTEXT ( ( #73, #80, #128 ) ) REPRESENTATION_CONTEXT ( 'NONE', 'WORKASPACE' ) );
#125 = CYLINDRICAL_SURFACE ( 'NONE', #115, 3.250000000000000400 ) ;
#126 = DIRECTION ( 'NONE',  ( -1.000000000000000000, -0.0000000000000000000, -0.0000000000000000000 ) ) ;
#127 = VECTOR ( 'NONE', #126, 1000.000000000000000 ) ;
#128 =( NAMED_UNIT ( * ) SI_UNIT ( $, .STERADIAN. ) SOLID_ANGLE_UNIT ( ) );
#129 = CARTESIAN_POINT ( 'NONE',  ( 100.0000000000000000, 0.0000000000000000000, 3.250000000000000400 ) ) ;
#130 = PRESENTATION_LAYER_ASSIGNMENT (  '', '', ( #131 ) ) ;
#131 = STYLED_ITEM ( 'NONE', ( #132 ), #39 ) ;
#132 = PRESENTATION_STYLE_ASSIGNMENT (( #133 ) ) ;
#133 = SURFACE_STYLE_USAGE ( .BOTH. , #134 ) ;
#134 = SURFACE_SIDE_STYLE ('',( #135 ) ) ;
#135 = SURFACE_STYLE_FILL_AREA ( #136 ) ;
#136 = FILL_AREA_STYLE ('',( #143 ) ) ;
#137 = COLOUR_RGB ( '',0.0000000000000000000, 0.5843137254901961100, 0.9058823529411764700 ) ;
#138 = DIRECTION ( 'NONE',  ( 0.0000000000000000000, 0.0000000000000000000, -1.000000000000000000 ) ) ;
#139 = DIRECTION ( 'NONE',  ( 1.000000000000000000, 0.0000000000000000000, 0.0000000000000000000 ) ) ;
#140 = CARTESIAN_POINT ( 'NONE',  ( 100.0000000000000000, 0.0000000000000000000, 0.0000000000000000000 ) ) ;
#141 = AXIS2_PLACEMENT_3D ( 'NONE', #140, #139, #138 ) ;
#142 = CARTESIAN_POINT ( 'NONE',  ( 100.0000000000000000, 3.980102097228897200E-016, -3.250000000000000400 ) ) ;
#143 = FILL_AREA_STYLE_COLOUR ( '', #137 ) ;
#144 = CIRCLE ( 'NONE', #141, 3.250000000000000400 ) ;
#145 = DIRECTION ( 'NONE',  ( -1.000000000000000000, -0.0000000000000000000, -0.0000000000000000000 ) ) ;
#146 = VECTOR ( 'NONE', #145, 1000.000000000000000 ) ;
#147 = CARTESIAN_POINT ( 'NONE',  ( 114.1421356237309700, 0.0000000000000000000, 5.000000000000000000 ) ) ;
#148 = LINE ( 'NONE', #147, #146 ) ;
#149 = CARTESIAN_POINT ( 'NONE',  ( 0.0000000000000000000, 0.0000000000000000000, 5.000000000000000000 ) ) ;
#150 = DIRECTION ( 'NONE',  ( -1.000000000000000000, -0.0000000000000000000, -0.0000000000000000000 ) ) ;
#151 = VECTOR ( 'NONE', #150, 1000.000000000000000 ) ;
#152 = CARTESIAN_POINT ( 'NONE',  ( 114.1421356237309700, 6.123233995736765300E-016, -5.000000000000000000 ) ) ;
#153 = COLOUR_RGB ( '',0.2470588235294117800, 0.6470588235294118000, 1.000000000000000000 ) ;
#154 = CIRCLE ( 'NONE', #237, 5.000000000000000000 ) ;
#155 = DIRECTION ( 'NONE',  ( 0.0000000000000000000, 0.0000000000000000000, -1.000000000000000000 ) ) ;
#156 = DIRECTION ( 'NONE',  ( 1.000000000000000000, 0.0000000000000000000, 0.0000000000000000000 ) ) ;
#157 = CARTESIAN_POINT ( 'NONE',  ( 0.0000000000000000000, 0.0000000000000000000, 0.0000000000000000000 ) ) ;
#158 = AXIS2_PLACEMENT_3D ( 'NONE', #157, #156, #155 ) ;
#159 = AXIS2_PLACEMENT_3D ( 'NONE', #205, #204, #203 ) ;
#160 = LINE ( 'NONE', #152, #151 ) ;
#161 = DIRECTION ( 'NONE',  ( 0.0000000000000000000, 0.0000000000000000000, 1.000000000000000000 ) ) ;
#162 = FACE_BOUND ( 'NONE', #52, .T. ) ;
#163 = CARTESIAN_POINT ( 'NONE',  ( 114.1421356237309700, 0.0000000000000000000, 0.0000000000000000000 ) ) ;
#164 = PLANE ( 'NONE',  #159 ) ;
#165 = DIRECTION ( 'NONE',  ( -1.000000000000000000, -0.0000000000000000000, -0.0000000000000000000 ) ) ;
#166 =( GEOMETRIC_REPRESENTATION_CONTEXT ( 3 ) GLOBAL_UNCERTAINTY_ASSIGNED_CONTEXT ( ( #167 ) ) GLOBAL_UNIT_ASSIGNED_CONTEXT ( ( #228, #169, #168 ) ) REPRESENTATION_CONTEXT ( 'NONE', 'WORKASPACE' ) );
#167 = UNCERTAINTY_MEASURE_WITH_UNIT (LENGTH_MEASURE( 1.000000000000000100E-005 ), #228, 'distance_accuracy_value', 'NONE');
#168 =( NAMED_UNIT ( * ) SI_UNIT ( $, .STERADIAN. ) SOLID_ANGLE_UNIT ( ) );
#169 =( NAMED_UNIT ( * ) PLANE_ANGLE_UNIT ( ) SI_UNIT ( $, .RADIAN. ) );
#170 = MECHANICAL_DESIGN_GEOMETRIC_PRESENTATION_REPRESENTATION (  '', ( #172 ), #308 ) ;
#171 = PRESENTATION_LAYER_ASSIGNMENT (  '', '', ( #172 ) ) ;
#172 = STYLED_ITEM ( 'NONE', ( #173 ), #182 ) ;
#173 = PRESENTATION_STYLE_ASSIGNMENT (( #174 ) ) ;
#174 = SURFACE_STYLE_USAGE ( .BOTH. , #175 ) ;
#175 = SURFACE_SIDE_STYLE ('',( #176 ) ) ;
#176 = SURFACE_STYLE_FILL_AREA ( #187 ) ;
#177 = COLOUR_RGB ( '',0.2470588235294117800, 0.6470588235294118000, 1.000000000000000000 ) ;
#178 = DIRECTION ( 'NONE',  ( 1.000000000000000000, 0.0000000000000000000, 0.0000000000000000000 ) ) ;
#179 = DIRECTION ( 'NONE',  ( 0.0000000000000000000, 0.0000000000000000000, 1.000000000000000000 ) ) ;
#180 = CARTESIAN_POINT ( 'NONE',  ( 0.0000000000000000000, 0.0000000000000000000, 0.0000000000000000000 ) ) ;
#181 = AXIS2_PLACEMENT_3D ( 'NONE', #180, #179, #178 ) ;
#182 = ADVANCED_BREP_SHAPE_REPRESENTATION ( '', ( #39, #181 ), #183 ) ;
#183 =( GEOMETRIC_REPRESENTATION_CONTEXT ( 3 ) GLOBAL_UNCERTAINTY_ASSIGNED_CONTEXT ( ( #184 ) ) GLOBAL_UNIT_ASSIGNED_CONTEXT ( ( #258, #186, #185 ) ) REPRESENTATION_CONTEXT ( 'NONE', 'WORKASPACE' ) );
#184 = UNCERTAINTY_MEASURE_WITH_UNIT (LENGTH_MEASURE( 1.000000000000000100E-005 ), #258, 'distance_accuracy_value', 'NONE');
#185 =( NAMED_UNIT ( * ) SI_UNIT ( $, .STERADIAN. ) SOLID_ANGLE_UNIT ( ) );
#186 =( NAMED_UNIT ( * ) PLANE_ANGLE_UNIT ( ) SI_UNIT ( $, .RADIAN. ) );
#187 = FILL_AREA_STYLE ('',( #188 ) ) ;
#188 = FILL_AREA_STYLE_COLOUR ( '', #177 ) ;
#189 = FACE_OUTER_BOUND ( 'NONE', #67, .T. ) ;
#190 = PLANE ( 'NONE',  #222 ) ;
#191 = AXIS2_PLACEMENT_3D ( 'NONE', #274, #273, #272 ) ;
#192 = DIRECTION ( 'NONE',  ( -1.000000000000000000, -0.0000000000000000000, -0.0000000000000000000 ) ) ;
#193 = VECTOR ( 'NONE', #192, 1000.000000000000000 ) ;
#194 = CARTESIAN_POINT ( 'NONE',  ( 114.1421356237309700, 0.0000000000000000000, 3.250000000000000400 ) ) ;
#195 = LINE ( 'NONE', #194, #193 ) ;
#196 = CIRCLE ( 'NONE', #191, 5.000000000000000000 ) ;
#197 = FILL_AREA_STYLE_COLOUR ( '', #271 ) ;
#198 = DIRECTION ( 'NONE',  ( 0.0000000000000000000, 0.0000000000000000000, -1.000000000000000000 ) ) ;
#199 = DIRECTION ( 'NONE',  ( 1.000000000000000000, 0.0000000000000000000, 0.0000000000000000000 ) ) ;
#200 = CARTESIAN_POINT ( 'NONE',  ( 0.0000000000000000000, 0.0000000000000000000, 0.0000000000000000000 ) ) ;
#201 = CIRCLE ( 'NONE', #208, 3.250000000000000400 ) ;
#202 = FACE_BOUND ( 'NONE', #53, .T. ) ;
#203 = DIRECTION ( 'NONE',  ( 0.0000000000000000000, 0.0000000000000000000, -1.000000000000000000 ) ) ;
#204 = DIRECTION ( 'NONE',  ( 1.000000000000000000, 0.0000000000000000000, 0.0000000000000000000 ) ) ;
#205 = CARTESIAN_POINT ( 'NONE',  ( 0.0000000000000000000, 0.0000000000000000000, 0.0000000000000000000 ) ) ;
#206 = CARTESIAN_POINT ( 'NONE',  ( 100.0000000000000000, 6.123233995736765300E-016, -5.000000000000000000 ) ) ;
#207 = FILL_AREA_STYLE ('',( #197 ) ) ;
#208 = AXIS2_PLACEMENT_3D ( 'NONE', #200, #199, #198 ) ;
#209 =( GEOMETRIC_REPRESENTATION_CONTEXT ( 3 ) GLOBAL_UNCERTAINTY_ASSIGNED_CONTEXT ( ( #210 ) ) GLOBAL_UNIT_ASSIGNED_CONTEXT ( ( #213, #212, #211 ) ) REPRESENTATION_CONTEXT ( 'NONE', 'WORKASPACE' ) );
#210 = UNCERTAINTY_MEASURE_WITH_UNIT (LENGTH_MEASURE( 1.000000000000000100E-005 ), #213, 'distance_accuracy_value', 'NONE');
#211 =( NAMED_UNIT ( * ) SI_UNIT ( $, .STERADIAN. ) SOLID_ANGLE_UNIT ( ) );
#212 =( NAMED_UNIT ( * ) PLANE_ANGLE_UNIT ( ) SI_UNIT ( $, .RADIAN. ) );
#213 =( LENGTH_UNIT ( ) NAMED_UNIT ( * ) SI_UNIT ( .MILLI., .METRE. ) );
#214 = MECHANICAL_DESIGN_GEOMETRIC_PRESENTATION_REPRESENTATION (  '', ( #216 ), #209 ) ;
#215 = PRESENTATION_LAYER_ASSIGNMENT (  '', '', ( #216 ) ) ;
#216 = STYLED_ITEM ( 'NONE', ( #217 ), #54 ) ;
#217 = PRESENTATION_STYLE_ASSIGNMENT (( #218 ) ) ;
#218 = SURFACE_STYLE_USAGE ( .BOTH. , #219 ) ;
#219 = SURFACE_SIDE_STYLE ('',( #220 ) ) ;
#220 = SURFACE_STYLE_FILL_AREA ( #221 ) ;
#221 = FILL_AREA_STYLE ('',( #227 ) ) ;
#222 = AXIS2_PLACEMENT_3D ( 'NONE', #257, #256, #255 ) ;
#223 = DIRECTION ( 'NONE',  ( 0.0000000000000000000, 0.0000000000000000000, -1.000000000000000000 ) ) ;
#224 = DIRECTION ( 'NONE',  ( 1.000000000000000000, 0.0000000000000000000, 0.0000000000000000000 ) ) ;
#225 = CARTESIAN_POINT ( 'NONE',  ( 100.0000000000000000, 0.0000000000000000000, 0.0000000000000000000 ) ) ;
#226 = FACE_OUTER_BOUND ( 'NONE', #20, .T. ) ;
#227 = FILL_AREA_STYLE_COLOUR ( '', #153 ) ;
#228 =( LENGTH_UNIT ( ) NAMED_UNIT ( * ) SI_UNIT ( .MILLI., .METRE. ) );
#229 = MECHANICAL_DESIGN_GEOMETRIC_PRESENTATION_REPRESENTATION (  '', ( #231 ), #166 ) ;
#230 = PRESENTATION_LAYER_ASSIGNMENT (  '', '', ( #231 ) ) ;
#231 = STYLED_ITEM ( 'NONE', ( #232 ), #45 ) ;
#232 = PRESENTATION_STYLE_ASSIGNMENT (( #233 ) ) ;
#233 = SURFACE_STYLE_USAGE ( .BOTH. , #234 ) ;
#234 = SURFACE_SIDE_STYLE ('',( #235 ) ) ;
#235 = SURFACE_STYLE_FILL_AREA ( #236 ) ;
#236 = FILL_AREA_STYLE ('',( #294 ) ) ;
#237 = AXIS2_PLACEMENT_3D ( 'NONE', #225, #224, #223 ) ;
#238 = DIRECTION ( 'NONE',  ( 0.0000000000000000000, 0.0000000000000000000, 1.000000000000000000 ) ) ;
#239 = DIRECTION ( 'NONE',  ( -1.000000000000000000, -0.0000000000000000000, -0.0000000000000000000 ) ) ;
#240 =( GEOMETRIC_REPRESENTATION_CONTEXT ( 3 ) GLOBAL_UNCERTAINTY_ASSIGNED_CONTEXT ( ( #241 ) ) GLOBAL_UNIT_ASSIGNED_CONTEXT ( ( #244, #243, #242 ) ) REPRESENTATION_CONTEXT ( 'NONE', 'WORKASPACE' ) );
#241 = UNCERTAINTY_MEASURE_WITH_UNIT (LENGTH_MEASURE( 1.000000000000000100E-005 ), #244, 'distance_accuracy_value', 'NONE');
#242 =( NAMED_UNIT ( * ) SI_UNIT ( $, .STERADIAN. ) SOLID_ANGLE_UNIT ( ) );
#243 =( NAMED_UNIT ( * ) PLANE_ANGLE_UNIT ( ) SI_UNIT ( $, .RADIAN. ) );
#244 =( LENGTH_UNIT ( ) NAMED_UNIT ( * ) SI_UNIT ( .MILLI., .METRE. ) );
#245 = DIRECTION ( 'NONE',  ( 1.000000000000000000, 0.0000000000000000000, 0.0000000000000000000 ) ) ;
#246 = DIRECTION ( 'NONE',  ( 0.0000000000000000000, 0.0000000000000000000, 1.000000000000000000 ) ) ;
#247 = CARTESIAN_POINT ( 'NONE',  ( 0.0000000000000000000, 0.0000000000000000000, 0.0000000000000000000 ) ) ;
#248 = AXIS2_PLACEMENT_3D ( 'NONE', #247, #246, #245 ) ;
#249 = DIRECTION ( 'NONE',  ( 1.000000000000000000, 0.0000000000000000000, 0.0000000000000000000 ) ) ;
#250 = DIRECTION ( 'NONE',  ( 0.0000000000000000000, 0.0000000000000000000, 1.000000000000000000 ) ) ;
#251 = CARTESIAN_POINT ( 'NONE',  ( 0.0000000000000000000, 0.0000000000000000000, 0.0000000000000000000 ) ) ;
#252 = AXIS2_PLACEMENT_3D ( 'NONE', #251, #250, #249 ) ;
#253 = SHAPE_REPRESENTATION ( 'TU1065BU-100.step', ( #254, #248 ), #240 ) ;
#254 = AXIS2_PLACEMENT_3D ( 'NONE', #304, #303, #305 ) ;
#255 = DIRECTION ( 'NONE',  ( 0.0000000000000000000, 0.0000000000000000000, -1.000000000000000000 ) ) ;
#256 = DIRECTION ( 'NONE',  ( 1.000000000000000000, 0.0000000000000000000, 0.0000000000000000000 ) ) ;
#257 = CARTESIAN_POINT ( 'NONE',  ( 100.0000000000000000, 0.0000000000000000000, 0.0000000000000000000 ) ) ;
#258 =( LENGTH_UNIT ( ) NAMED_UNIT ( * ) SI_UNIT ( .MILLI., .METRE. ) );
#259 =( GEOMETRIC_REPRESENTATION_CONTEXT ( 3 ) GLOBAL_UNCERTAINTY_ASSIGNED_CONTEXT ( ( #260 ) ) GLOBAL_UNIT_ASSIGNED_CONTEXT ( ( #263, #262, #261 ) ) REPRESENTATION_CONTEXT ( 'NONE', 'WORKASPACE' ) );
#260 = UNCERTAINTY_MEASURE_WITH_UNIT (LENGTH_MEASURE( 1.000000000000000100E-005 ), #263, 'distance_accuracy_value', 'NONE');
#261 =( NAMED_UNIT ( * ) SI_UNIT ( $, .STERADIAN. ) SOLID_ANGLE_UNIT ( ) );
#262 =( NAMED_UNIT ( * ) PLANE_ANGLE_UNIT ( ) SI_UNIT ( $, .RADIAN. ) );
#263 =( LENGTH_UNIT ( ) NAMED_UNIT ( * ) SI_UNIT ( .MILLI., .METRE. ) );
#264 = MECHANICAL_DESIGN_GEOMETRIC_PRESENTATION_REPRESENTATION (  '', ( #266 ), #259 ) ;
#265 = PRESENTATION_LAYER_ASSIGNMENT (  '', '', ( #266 ) ) ;
#266 = STYLED_ITEM ( 'NONE', ( #267 ), #65 ) ;
#267 = PRESENTATION_STYLE_ASSIGNMENT (( #268 ) ) ;
#268 = SURFACE_STYLE_USAGE ( .BOTH. , #269 ) ;
#269 = SURFACE_SIDE_STYLE ('',( #270 ) ) ;
#270 = SURFACE_STYLE_FILL_AREA ( #207 ) ;
#271 = COLOUR_RGB ( '',0.2470588235294117800, 0.6470588235294118000, 1.000000000000000000 ) ;
#272 = DIRECTION ( 'NONE',  ( 0.0000000000000000000, 0.0000000000000000000, -1.000000000000000000 ) ) ;
#273 = DIRECTION ( 'NONE',  ( 1.000000000000000000, 0.0000000000000000000, 0.0000000000000000000 ) ) ;
#274 = CARTESIAN_POINT ( 'NONE',  ( 100.0000000000000000, 0.0000000000000000000, 0.0000000000000000000 ) ) ;
#275 = CYLINDRICAL_SURFACE ( 'NONE', #297, 3.250000000000000400 ) ;
#276 = CIRCLE ( 'NONE', #158, 5.000000000000000000 ) ;
#277 = CARTESIAN_POINT ( 'NONE',  ( 114.1421356237309700, 0.0000000000000000000, 0.0000000000000000000 ) ) ;
#278 =( GEOMETRIC_REPRESENTATION_CONTEXT ( 3 ) GLOBAL_UNCERTAINTY_ASSIGNED_CONTEXT ( ( #279 ) ) GLOBAL_UNIT_ASSIGNED_CONTEXT ( ( #282, #281, #280 ) ) REPRESENTATION_CONTEXT ( 'NONE', 'WORKASPACE' ) );
#279 = UNCERTAINTY_MEASURE_WITH_UNIT (LENGTH_MEASURE( 1.000000000000000100E-005 ), #282, 'distance_accuracy_value', 'NONE');
#280 =( NAMED_UNIT ( * ) SI_UNIT ( $, .STERADIAN. ) SOLID_ANGLE_UNIT ( ) );
#281 =( NAMED_UNIT ( * ) PLANE_ANGLE_UNIT ( ) SI_UNIT ( $, .RADIAN. ) );
#282 =( LENGTH_UNIT ( ) NAMED_UNIT ( * ) SI_UNIT ( .MILLI., .METRE. ) );
#283 = MECHANICAL_DESIGN_GEOMETRIC_PRESENTATION_REPRESENTATION (  '', ( #285 ), #278 ) ;
#284 = PRESENTATION_LAYER_ASSIGNMENT (  '', '', ( #285 ) ) ;
#285 = STYLED_ITEM ( 'NONE', ( #286 ), #43 ) ;
#286 = PRESENTATION_STYLE_ASSIGNMENT (( #287 ) ) ;
#287 = SURFACE_STYLE_USAGE ( .BOTH. , #288 ) ;
#288 = SURFACE_SIDE_STYLE ('',( #289 ) ) ;
#289 = SURFACE_STYLE_FILL_AREA ( #290 ) ;
#290 = FILL_AREA_STYLE ('',( #300 ) ) ;
#291 = COLOUR_RGB ( '',0.2470588235294117800, 0.6470588235294118000, 1.000000000000000000 ) ;
#292 = AXIS2_PLACEMENT_3D ( 'NONE', #163, #165, #161 ) ;
#293 = FACE_OUTER_BOUND ( 'NONE', #62, .T. ) ;
#294 = FILL_AREA_STYLE_COLOUR ( '', #291 ) ;
#295 = FACE_OUTER_BOUND ( 'NONE', #35, .T. ) ;
#296 = CARTESIAN_POINT ( 'NONE',  ( 100.0000000000000000, 0.0000000000000000000, 5.000000000000000000 ) ) ;
#297 = AXIS2_PLACEMENT_3D ( 'NONE', #277, #239, #238 ) ;
#298 = CARTESIAN_POINT ( 'NONE',  ( 0.0000000000000000000, 3.980102097228897200E-016, -3.250000000000000400 ) ) ;
#299 = CYLINDRICAL_SURFACE ( 'NONE', #292, 5.000000000000000000 ) ;
#300 = FILL_AREA_STYLE_COLOUR ( '', #301 ) ;
#301 = COLOUR_RGB ( '',0.2470588235294117800, 0.6470588235294118000, 1.000000000000000000 ) ;
#302 =( GEOMETRIC_REPRESENTATION_CONTEXT ( 3 ) GLOBAL_UNCERTAINTY_ASSIGNED_CONTEXT ( ( #116 ) ) GLOBAL_UNIT_ASSIGNED_CONTEXT ( ( #10, #70, #120 ) ) REPRESENTATION_CONTEXT ( 'NONE', 'WORKASPACE' ) );
#303 = DIRECTION ( 'NONE',  ( 0.0000000000000000000, 0.0000000000000000000, 1.000000000000000000 ) ) ;
#304 = CARTESIAN_POINT ( 'NONE',  ( 0.0000000000000000000, 0.0000000000000000000, 0.0000000000000000000 ) ) ;
#305 = DIRECTION ( 'NONE',  ( 1.000000000000000000, 0.0000000000000000000, 0.0000000000000000000 ) ) ;
#306 = SHAPE_REPRESENTATION_RELATIONSHIP ( 'NONE' , 'NONE' ,  #307, #182 ) ;
#307 = SHAPE_REPRESENTATION ( 'TU1065BU-100.step_TU3076 Tube_1065BU', ( #181 ), #183 ) ;
#308 =( GEOMETRIC_REPRESENTATION_CONTEXT ( 3 ) GLOBAL_UNCERTAINTY_ASSIGNED_CONTEXT ( ( #309 ) ) GLOBAL_UNIT_ASSIGNED_CONTEXT ( ( #312, #311, #310 ) ) REPRESENTATION_CONTEXT ( 'NONE', 'WORKASPACE' ) );
#309 = UNCERTAINTY_MEASURE_WITH_UNIT (LENGTH_MEASURE( 1.000000000000000100E-005 ), #312, 'distance_accuracy_value', 'NONE');
#310 =( NAMED_UNIT ( * ) SI_UNIT ( $, .STERADIAN. ) SOLID_ANGLE_UNIT ( ) );
#311 =( NAMED_UNIT ( * ) PLANE_ANGLE_UNIT ( ) SI_UNIT ( $, .RADIAN. ) );
#312 =( LENGTH_UNIT ( ) NAMED_UNIT ( * ) SI_UNIT ( .MILLI., .METRE. ) );
#313 = PRODUCT_DEFINITION_SHAPE ( 'NONE', 'NONE',  #316 ) ;
#314 = PRODUCT_RELATED_PRODUCT_CATEGORY ( 'part', '', ( #320 ) ) ;
#315 = PRODUCT_DEFINITION_FORMATION_WITH_SPECIFIED_SOURCE ( 'ANY', '', #320, .NOT_KNOWN. ) ;
#316 = PRODUCT_DEFINITION ( 'UNKNOWN', '', #315, #317 ) ;
#317 = PRODUCT_DEFINITION_CONTEXT ( 'detailed design', #319, 'design' ) ;
#318 = APPLICATION_PROTOCOL_DEFINITION ( 'draft international standard', 'automotive_design', 1998, #319 ) ;
#319 = APPLICATION_CONTEXT ( 'automotive_design' ) ;
#320 = PRODUCT ( 'TU1065BU-100.step', 'TU1065BU-100.step', '', ( #321 ) ) ;
#321 = PRODUCT_CONTEXT ( 'NONE', #340, 'mechanical' ) ;
#322 = APPLICATION_PROTOCOL_DEFINITION ( 'draft international standard', 'automotive_design', 1998, #340 ) ;
#323 = ITEM_DEFINED_TRANSFORMATION ( 'NONE', 'NONE', #248,  #181 ) ;
#324 = APPLICATION_CONTEXT ( 'automotive_design' ) ;
#325 = SHAPE_DEFINITION_REPRESENTATION ( #313, #253 ) ;
#326 = PRODUCT_DEFINITION_SHAPE ( 'NONE', 'NONE',  #330 ) ;
#327 = PRODUCT_RELATED_PRODUCT_CATEGORY ( 'part', '', ( #334 ) ) ;
#328 = PRODUCT_DEFINITION_FORMATION_WITH_SPECIFIED_SOURCE ( 'ANY', '', #334, .NOT_KNOWN. ) ;
#329 = PRODUCT_DEFINITION_SHAPE ( 'NONE', 'NONE',  #341 ) ;
#330 = PRODUCT_DEFINITION ( 'UNKNOWN', '', #328, #331 ) ;
#331 = PRODUCT_DEFINITION_CONTEXT ( 'detailed design', #333, 'design' ) ;
#332 = APPLICATION_PROTOCOL_DEFINITION ( 'draft international standard', 'automotive_design', 1998, #333 ) ;
#333 = APPLICATION_CONTEXT ( 'automotive_design' ) ;
#334 = PRODUCT ( 'TU1065BU-100.step_TU3076 Tube_1065BU', 'TU1065BU-100.step_TU3076 Tube_1065BU', '', ( #335 ) ) ;
#335 = PRODUCT_CONTEXT ( 'NONE', #324, 'mechanical' ) ;
#336 = APPLICATION_PROTOCOL_DEFINITION ( 'draft international standard', 'automotive_design', 1998, #324 ) ;
#337 = CONTEXT_DEPENDENT_SHAPE_REPRESENTATION ( #338, #329 ) ;
#338 =( REPRESENTATION_RELATIONSHIP ('NONE','NONE', #253, #307 ) REPRESENTATION_RELATIONSHIP_WITH_TRANSFORMATION ( #323 )SHAPE_REPRESENTATION_RELATIONSHIP( ) );
#339 = SHAPE_DEFINITION_REPRESENTATION ( #326, #307 ) ;
#340 = APPLICATION_CONTEXT ( 'automotive_design' ) ;
#341 = NEXT_ASSEMBLY_USAGE_OCCURRENCE ( 'NAUO1', ' ', ' ', #316, #330, $ ) ;
ENDSEC;
END-ISO-10303-21;
