ISO-10303-21;
HEADER;
FILE_DESCRIPTION (( 'STEP AP214' ),
    '1' );
FILE_NAME ('TU1065BU-20.step.step',
    '2011-07-28T18:56:14',
    ( 'SysAdmin' ),
    ( 'SolidWorks' ),
    'SwSTEP 2.0',
    'SolidWorks 2011',
    '' );
FILE_SCHEMA (( 'AUTOMOTIVE_DESIGN' ));
ENDSEC;

DATA;
#1 = EDGE_CURVE ( 'NONE', #48, #67, #113, .T. ) ;
#2 = VERTEX_POINT ( 'NONE', #100 ) ;
#3 = ADVANCED_FACE ( 'NONE', ( #99 ), #107, .T. ) ;
#4 = PRODUCT_RELATED_PRODUCT_CATEGORY ( 'part', '', ( #242 ) ) ;
#5 = PRODUCT_DEFINITION_FORMATION_WITH_SPECIFIED_SOURCE ( 'ANY', '', #242, .NOT_KNOWN. ) ;
#6 = ORIENTED_EDGE ( 'NONE', *, *, #64, .F. ) ;
#7 = EDGE_CURVE ( 'NONE', #43, #23, #128, .T. ) ;
#8 = ADVANCED_FACE ( 'NONE', ( #155, #154 ), #149, .F. ) ;
#9 = ORIENTED_EDGE ( 'NONE', *, *, #64, .T. ) ;
#10 = ORIENTED_EDGE ( 'NONE', *, *, #65, .T. ) ;
#11 = ORIENTED_EDGE ( 'NONE', *, *, #37, .F. ) ;
#12 = ORIENTED_EDGE ( 'NONE', *, *, #35, .T. ) ;
#13 = ORIENTED_EDGE ( 'NONE', *, *, #1, .T. ) ;
#14 =( NAMED_UNIT ( * ) PLANE_ANGLE_UNIT ( ) SI_UNIT ( $, .RADIAN. ) );
#15 =( NAMED_UNIT ( * ) SI_UNIT ( $, .STERADIAN. ) SOLID_ANGLE_UNIT ( ) );
#16 = ORIENTED_EDGE ( 'NONE', *, *, #56, .F. ) ;
#17 = CLOSED_SHELL ( 'NONE', ( #42, #72, #3, #8, #24, #29 ) ) ;
#18 = ITEM_DEFINED_TRANSFORMATION ( 'NONE', 'NONE', #263,  #199 ) ;
#19 = SHAPE_DEFINITION_REPRESENTATION ( #22, #274 ) ;
#20 =( GEOMETRIC_REPRESENTATION_CONTEXT ( 3 ) GLOBAL_UNCERTAINTY_ASSIGNED_CONTEXT ( ( #21 ) ) GLOBAL_UNIT_ASSIGNED_CONTEXT ( ( #160, #14, #15 ) ) REPRESENTATION_CONTEXT ( 'NONE', 'WORKASPACE' ) );
#21 = UNCERTAINTY_MEASURE_WITH_UNIT (LENGTH_MEASURE( 1.000000000000000100E-005 ), #160, 'distance_accuracy_value', 'NONE');
#22 = PRODUCT_DEFINITION_SHAPE ( 'NONE', 'NONE',  #238 ) ;
#23 = VERTEX_POINT ( 'NONE', #132 ) ;
#24 = ADVANCED_FACE ( 'NONE', ( #102 ), #88, .F. ) ;
#25 = ORIENTED_EDGE ( 'NONE', *, *, #54, .T. ) ;
#26 = ORIENTED_EDGE ( 'NONE', *, *, #54, .F. ) ;
#27 = EDGE_LOOP ( 'NONE', ( #53, #26 ) ) ;
#28 = ORIENTED_EDGE ( 'NONE', *, *, #7, .F. ) ;
#29 = ADVANCED_FACE ( 'NONE', ( #184, #183 ), #97, .T. ) ;
#30 = EDGE_LOOP ( 'NONE', ( #68, #11, #10, #9 ) ) ;
#31 = ORIENTED_EDGE ( 'NONE', *, *, #65, .F. ) ;
#32 = ORIENTED_EDGE ( 'NONE', *, *, #61, .T. ) ;
#33 = PRODUCT_DEFINITION_SHAPE ( 'NONE', 'NONE',  #59 ) ;
#34 = EDGE_LOOP ( 'NONE', ( #55, #60, #32, #31 ) ) ;
#35 = EDGE_CURVE ( 'NONE', #40, #23, #140, .T. ) ;
#36 = MANIFOLD_SOLID_BREP ( 'Tube', #17 ) ;
#37 = EDGE_CURVE ( 'NONE', #67, #48, #297, .T. ) ;
#38 = EDGE_CURVE ( 'NONE', #48, #2, #298, .T. ) ;
#39 = EDGE_CURVE ( 'NONE', #40, #69, #221, .T. ) ;
#40 = VERTEX_POINT ( 'NONE', #229 ) ;
#41 = CONTEXT_DEPENDENT_SHAPE_REPRESENTATION ( #57, #33 ) ;
#42 = ADVANCED_FACE ( 'NONE', ( #258 ), #299, .F. ) ;
#43 = VERTEX_POINT ( 'NONE', #228 ) ;
#44 = ORIENTED_EDGE ( 'NONE', *, *, #37, .T. ) ;
#45 = EDGE_CURVE ( 'NONE', #23, #43, #212, .T. ) ;
#46 = ORIENTED_EDGE ( 'NONE', *, *, #56, .T. ) ;
#47 = ORIENTED_EDGE ( 'NONE', *, *, #61, .F. ) ;
#48 = VERTEX_POINT ( 'NONE', #214 ) ;
#49 = EDGE_LOOP ( 'NONE', ( #50, #52 ) ) ;
#50 = ORIENTED_EDGE ( 'NONE', *, *, #45, .T. ) ;
#51 = EDGE_LOOP ( 'NONE', ( #44, #13 ) ) ;
#52 = ORIENTED_EDGE ( 'NONE', *, *, #7, .T. ) ;
#53 = ORIENTED_EDGE ( 'NONE', *, *, #39, .F. ) ;
#54 = EDGE_CURVE ( 'NONE', #69, #40, #257, .T. ) ;
#55 = ORIENTED_EDGE ( 'NONE', *, *, #1, .F. ) ;
#56 = EDGE_CURVE ( 'NONE', #69, #43, #339, .T. ) ;
#57 =( REPRESENTATION_RELATIONSHIP ('NONE','NONE', #268, #274 ) REPRESENTATION_RELATIONSHIP_WITH_TRANSFORMATION ( #18 )SHAPE_REPRESENTATION_RELATIONSHIP( ) );
#58 = ORIENTED_EDGE ( 'NONE', *, *, #45, .F. ) ;
#59 = NEXT_ASSEMBLY_USAGE_OCCURRENCE ( 'NAUO1', ' ', ' ', #248, #238, $ ) ;
#60 = ORIENTED_EDGE ( 'NONE', *, *, #38, .T. ) ;
#61 = EDGE_CURVE ( 'NONE', #2, #63, #331, .T. ) ;
#62 = EDGE_LOOP ( 'NONE', ( #6, #47 ) ) ;
#63 = VERTEX_POINT ( 'NONE', #341 ) ;
#64 = EDGE_CURVE ( 'NONE', #63, #2, #213, .T. ) ;
#65 = EDGE_CURVE ( 'NONE', #67, #63, #316, .T. ) ;
#66 = EDGE_LOOP ( 'NONE', ( #16, #25, #12, #28 ) ) ;
#67 = VERTEX_POINT ( 'NONE', #319 ) ;
#68 = ORIENTED_EDGE ( 'NONE', *, *, #38, .F. ) ;
#69 = VERTEX_POINT ( 'NONE', #318 ) ;
#70 = ORIENTED_EDGE ( 'NONE', *, *, #39, .T. ) ;
#71 = EDGE_LOOP ( 'NONE', ( #70, #46, #58, #73 ) ) ;
#72 = ADVANCED_FACE ( 'NONE', ( #317 ), #309, .T. ) ;
#73 = ORIENTED_EDGE ( 'NONE', *, *, #35, .F. ) ;
#74 = PRESENTATION_STYLE_ASSIGNMENT (( #109 ) ) ;
#75 =( NAMED_UNIT ( * ) SI_UNIT ( $, .STERADIAN. ) SOLID_ANGLE_UNIT ( ) );
#76 = CARTESIAN_POINT ( 'NONE',  ( 114.1421356237309700, 0.0000000000000000000, 0.0000000000000000000 ) ) ;
#77 = FILL_AREA_STYLE ('',( #78 ) ) ;
#78 = FILL_AREA_STYLE_COLOUR ( '', #141 ) ;
#79 = FILL_AREA_STYLE_COLOUR ( '', #80 ) ;
#80 = COLOUR_RGB ( '',0.2470588235294117800, 0.6470588235294118000, 1.000000000000000000 ) ;
#81 = CARTESIAN_POINT ( 'NONE',  ( 114.1421356237309700, 0.0000000000000000000, 3.250000000000000400 ) ) ;
#82 = MECHANICAL_DESIGN_GEOMETRIC_PRESENTATION_REPRESENTATION (  '', ( #84 ), #185 ) ;
#83 = PRESENTATION_LAYER_ASSIGNMENT (  '', '', ( #84 ) ) ;
#84 = STYLED_ITEM ( 'NONE', ( #85 ), #24 ) ;
#85 = PRESENTATION_STYLE_ASSIGNMENT (( #86 ) ) ;
#86 = SURFACE_STYLE_USAGE ( .BOTH. , #87 ) ;
#87 = SURFACE_SIDE_STYLE ('',( #167 ) ) ;
#88 = CYLINDRICAL_SURFACE ( 'NONE', #117, 3.250000000000000400 ) ;
#89 = SURFACE_SIDE_STYLE ('',( #180 ) ) ;
#90 = FILL_AREA_STYLE ('',( #79 ) ) ;
#91 = CARTESIAN_POINT ( 'NONE',  ( 100.0000000000000000, 0.0000000000000000000, 0.0000000000000000000 ) ) ;
#92 = COLOUR_RGB ( '',0.2470588235294117800, 0.6470588235294118000, 1.000000000000000000 ) ;
#93 = DIRECTION ( 'NONE',  ( 0.0000000000000000000, 0.0000000000000000000, 1.000000000000000000 ) ) ;
#94 = CARTESIAN_POINT ( 'NONE',  ( 0.0000000000000000000, 0.0000000000000000000, 0.0000000000000000000 ) ) ;
#95 = AXIS2_PLACEMENT_3D ( 'NONE', #94, #170, #169 ) ;
#96 = FILL_AREA_STYLE_COLOUR ( '', #168 ) ;
#97 = PLANE ( 'NONE',  #131 ) ;
#98 = SURFACE_STYLE_FILL_AREA ( #138 ) ;
#99 = FACE_OUTER_BOUND ( 'NONE', #30, .T. ) ;
#100 = CARTESIAN_POINT ( 'NONE',  ( 0.0000000000000000000, 6.123233995736765300E-016, -5.000000000000000000 ) ) ;
#101 = MECHANICAL_DESIGN_GEOMETRIC_PRESENTATION_REPRESENTATION (  '', ( #135 ), #129 ) ;
#102 = FACE_OUTER_BOUND ( 'NONE', #66, .T. ) ;
#103 = CARTESIAN_POINT ( 'NONE',  ( 100.0000000000000000, 0.0000000000000000000, 0.0000000000000000000 ) ) ;
#104 = SURFACE_STYLE_FILL_AREA ( #106 ) ;
#105 = UNCERTAINTY_MEASURE_WITH_UNIT (LENGTH_MEASURE( 1.000000000000000100E-005 ), #118, 'distance_accuracy_value', 'NONE');
#106 = FILL_AREA_STYLE ('',( #182 ) ) ;
#107 = CYLINDRICAL_SURFACE ( 'NONE', #112, 5.000000000000000000 ) ;
#108 = DIRECTION ( 'NONE',  ( 1.000000000000000000, 0.0000000000000000000, 0.0000000000000000000 ) ) ;
#109 = SURFACE_STYLE_USAGE ( .BOTH. , #110 ) ;
#110 = SURFACE_SIDE_STYLE ('',( #104 ) ) ;
#111 = PRESENTATION_LAYER_ASSIGNMENT (  '', '', ( #135 ) ) ;
#112 = AXIS2_PLACEMENT_3D ( 'NONE', #76, #153, #147 ) ;
#113 = CIRCLE ( 'NONE', #148, 5.000000000000000000 ) ;
#114 = PRESENTATION_STYLE_ASSIGNMENT (( #115 ) ) ;
#115 = SURFACE_STYLE_USAGE ( .BOTH. , #116 ) ;
#116 = SURFACE_SIDE_STYLE ('',( #98 ) ) ;
#117 = AXIS2_PLACEMENT_3D ( 'NONE', #126, #127, #93 ) ;
#118 =( LENGTH_UNIT ( ) NAMED_UNIT ( * ) SI_UNIT ( .MILLI., .METRE. ) );
#119 =( NAMED_UNIT ( * ) SI_UNIT ( $, .STERADIAN. ) SOLID_ANGLE_UNIT ( ) );
#120 =( NAMED_UNIT ( * ) PLANE_ANGLE_UNIT ( ) SI_UNIT ( $, .RADIAN. ) );
#121 =( LENGTH_UNIT ( ) NAMED_UNIT ( * ) SI_UNIT ( .MILLI., .METRE. ) );
#122 = DIRECTION ( 'NONE',  ( 0.0000000000000000000, 0.0000000000000000000, -1.000000000000000000 ) ) ;
#123 = DIRECTION ( 'NONE',  ( 1.000000000000000000, 0.0000000000000000000, 0.0000000000000000000 ) ) ;
#124 = CARTESIAN_POINT ( 'NONE',  ( 0.0000000000000000000, 0.0000000000000000000, 0.0000000000000000000 ) ) ;
#125 = FILL_AREA_STYLE_COLOUR ( '', #92 ) ;
#126 = CARTESIAN_POINT ( 'NONE',  ( 114.1421356237309700, 0.0000000000000000000, 0.0000000000000000000 ) ) ;
#127 = DIRECTION ( 'NONE',  ( -1.000000000000000000, -0.0000000000000000000, -0.0000000000000000000 ) ) ;
#128 = CIRCLE ( 'NONE', #95, 3.250000000000000400 ) ;
#129 =( GEOMETRIC_REPRESENTATION_CONTEXT ( 3 ) GLOBAL_UNCERTAINTY_ASSIGNED_CONTEXT ( ( #105 ) ) GLOBAL_UNIT_ASSIGNED_CONTEXT ( ( #118, #139, #75 ) ) REPRESENTATION_CONTEXT ( 'NONE', 'WORKASPACE' ) );
#130 = FILL_AREA_STYLE ('',( #125 ) ) ;
#131 = AXIS2_PLACEMENT_3D ( 'NONE', #91, #144, #143 ) ;
#132 = CARTESIAN_POINT ( 'NONE',  ( 0.0000000000000000000, 0.0000000000000000000, 3.250000000000000400 ) ) ;
#133 =( GEOMETRIC_REPRESENTATION_CONTEXT ( 3 ) GLOBAL_UNCERTAINTY_ASSIGNED_CONTEXT ( ( #159 ) ) GLOBAL_UNIT_ASSIGNED_CONTEXT ( ( #136, #172, #171 ) ) REPRESENTATION_CONTEXT ( 'NONE', 'WORKASPACE' ) );
#134 = DIRECTION ( 'NONE',  ( 0.0000000000000000000, 0.0000000000000000000, -1.000000000000000000 ) ) ;
#135 = STYLED_ITEM ( 'NONE', ( #74 ), #3 ) ;
#136 =( LENGTH_UNIT ( ) NAMED_UNIT ( * ) SI_UNIT ( .MILLI., .METRE. ) );
#137 = AXIS2_PLACEMENT_3D ( 'NONE', #124, #123, #122 ) ;
#138 = FILL_AREA_STYLE ('',( #96 ) ) ;
#139 =( NAMED_UNIT ( * ) PLANE_ANGLE_UNIT ( ) SI_UNIT ( $, .RADIAN. ) );
#140 = LINE ( 'NONE', #81, #142 ) ;
#141 = COLOUR_RGB ( '',0.0000000000000000000, 0.5843137254901961100, 0.9058823529411764700 ) ;
#142 = VECTOR ( 'NONE', #166, 1000.000000000000000 ) ;
#143 = DIRECTION ( 'NONE',  ( 0.0000000000000000000, 0.0000000000000000000, -1.000000000000000000 ) ) ;
#144 = DIRECTION ( 'NONE',  ( 1.000000000000000000, 0.0000000000000000000, 0.0000000000000000000 ) ) ;
#145 = SURFACE_SIDE_STYLE ('',( #146 ) ) ;
#146 = SURFACE_STYLE_FILL_AREA ( #77 ) ;
#147 = DIRECTION ( 'NONE',  ( 0.0000000000000000000, 0.0000000000000000000, 1.000000000000000000 ) ) ;
#148 = AXIS2_PLACEMENT_3D ( 'NONE', #103, #108, #134 ) ;
#149 = PLANE ( 'NONE',  #137 ) ;
#150 =( GEOMETRIC_REPRESENTATION_CONTEXT ( 3 ) GLOBAL_UNCERTAINTY_ASSIGNED_CONTEXT ( ( #151 ) ) GLOBAL_UNIT_ASSIGNED_CONTEXT ( ( #174, #173, #152 ) ) REPRESENTATION_CONTEXT ( 'NONE', 'WORKASPACE' ) );
#151 = UNCERTAINTY_MEASURE_WITH_UNIT (LENGTH_MEASURE( 1.000000000000000100E-005 ), #174, 'distance_accuracy_value', 'NONE');
#152 =( NAMED_UNIT ( * ) SI_UNIT ( $, .STERADIAN. ) SOLID_ANGLE_UNIT ( ) );
#153 = DIRECTION ( 'NONE',  ( -1.000000000000000000, -0.0000000000000000000, -0.0000000000000000000 ) ) ;
#154 = FACE_BOUND ( 'NONE', #49, .T. ) ;
#155 = FACE_OUTER_BOUND ( 'NONE', #62, .T. ) ;
#156 = MECHANICAL_DESIGN_GEOMETRIC_PRESENTATION_REPRESENTATION (  '', ( #158 ), #133 ) ;
#157 = PRESENTATION_LAYER_ASSIGNMENT (  '', '', ( #158 ) ) ;
#158 = STYLED_ITEM ( 'NONE', ( #114 ), #8 ) ;
#159 = UNCERTAINTY_MEASURE_WITH_UNIT (LENGTH_MEASURE( 1.000000000000000100E-005 ), #136, 'distance_accuracy_value', 'NONE');
#160 =( LENGTH_UNIT ( ) NAMED_UNIT ( * ) SI_UNIT ( .MILLI., .METRE. ) );
#161 = MECHANICAL_DESIGN_GEOMETRIC_PRESENTATION_REPRESENTATION (  '', ( #163 ), #20 ) ;
#162 = PRESENTATION_LAYER_ASSIGNMENT (  '', '', ( #163 ) ) ;
#163 = STYLED_ITEM ( 'NONE', ( #164 ), #36 ) ;
#164 = PRESENTATION_STYLE_ASSIGNMENT (( #165 ) ) ;
#165 = SURFACE_STYLE_USAGE ( .BOTH. , #145 ) ;
#166 = DIRECTION ( 'NONE',  ( -1.000000000000000000, -0.0000000000000000000, -0.0000000000000000000 ) ) ;
#167 = SURFACE_STYLE_FILL_AREA ( #130 ) ;
#168 = COLOUR_RGB ( '',0.2470588235294117800, 0.6470588235294118000, 1.000000000000000000 ) ;
#169 = DIRECTION ( 'NONE',  ( 0.0000000000000000000, 0.0000000000000000000, -1.000000000000000000 ) ) ;
#170 = DIRECTION ( 'NONE',  ( 1.000000000000000000, 0.0000000000000000000, 0.0000000000000000000 ) ) ;
#171 =( NAMED_UNIT ( * ) SI_UNIT ( $, .STERADIAN. ) SOLID_ANGLE_UNIT ( ) );
#172 =( NAMED_UNIT ( * ) PLANE_ANGLE_UNIT ( ) SI_UNIT ( $, .RADIAN. ) );
#173 =( NAMED_UNIT ( * ) PLANE_ANGLE_UNIT ( ) SI_UNIT ( $, .RADIAN. ) );
#174 =( LENGTH_UNIT ( ) NAMED_UNIT ( * ) SI_UNIT ( .MILLI., .METRE. ) );
#175 = MECHANICAL_DESIGN_GEOMETRIC_PRESENTATION_REPRESENTATION (  '', ( #177 ), #150 ) ;
#176 = PRESENTATION_LAYER_ASSIGNMENT (  '', '', ( #177 ) ) ;
#177 = STYLED_ITEM ( 'NONE', ( #178 ), #29 ) ;
#178 = PRESENTATION_STYLE_ASSIGNMENT (( #179 ) ) ;
#179 = SURFACE_STYLE_USAGE ( .BOTH. , #89 ) ;
#180 = SURFACE_STYLE_FILL_AREA ( #90 ) ;
#181 = COLOUR_RGB ( '',0.2470588235294117800, 0.6470588235294118000, 1.000000000000000000 ) ;
#182 = FILL_AREA_STYLE_COLOUR ( '', #181 ) ;
#183 = FACE_OUTER_BOUND ( 'NONE', #51, .T. ) ;
#184 = FACE_BOUND ( 'NONE', #27, .T. ) ;
#185 =( GEOMETRIC_REPRESENTATION_CONTEXT ( 3 ) GLOBAL_UNCERTAINTY_ASSIGNED_CONTEXT ( ( #186 ) ) GLOBAL_UNIT_ASSIGNED_CONTEXT ( ( #121, #120, #119 ) ) REPRESENTATION_CONTEXT ( 'NONE', 'WORKASPACE' ) );
#186 = UNCERTAINTY_MEASURE_WITH_UNIT (LENGTH_MEASURE( 1.000000000000000100E-005 ), #121, 'distance_accuracy_value', 'NONE');
#187 =( NAMED_UNIT ( * ) PLANE_ANGLE_UNIT ( ) SI_UNIT ( $, .RADIAN. ) );
#188 =( LENGTH_UNIT ( ) NAMED_UNIT ( * ) SI_UNIT ( .MILLI., .METRE. ) );
#189 = MECHANICAL_DESIGN_GEOMETRIC_PRESENTATION_REPRESENTATION (  '', ( #191 ), #275 ) ;
#190 = PRESENTATION_LAYER_ASSIGNMENT (  '', '', ( #191 ) ) ;
#191 = STYLED_ITEM ( 'NONE', ( #192 ), #200 ) ;
#192 = PRESENTATION_STYLE_ASSIGNMENT (( #193 ) ) ;
#193 = SURFACE_STYLE_USAGE ( .BOTH. , #205 ) ;
#194 = SURFACE_STYLE_FILL_AREA ( #206 ) ;
#195 = COLOUR_RGB ( '',0.2470588235294117800, 0.6470588235294118000, 1.000000000000000000 ) ;
#196 = DIRECTION ( 'NONE',  ( 1.000000000000000000, 0.0000000000000000000, 0.0000000000000000000 ) ) ;
#197 = DIRECTION ( 'NONE',  ( 0.0000000000000000000, 0.0000000000000000000, 1.000000000000000000 ) ) ;
#198 = CARTESIAN_POINT ( 'NONE',  ( 0.0000000000000000000, 0.0000000000000000000, 0.0000000000000000000 ) ) ;
#199 = AXIS2_PLACEMENT_3D ( 'NONE', #198, #197, #196 ) ;
#200 = ADVANCED_BREP_SHAPE_REPRESENTATION ( '', ( #36, #199 ), #201 ) ;
#201 =( GEOMETRIC_REPRESENTATION_CONTEXT ( 3 ) GLOBAL_UNCERTAINTY_ASSIGNED_CONTEXT ( ( #202 ) ) GLOBAL_UNIT_ASSIGNED_CONTEXT ( ( #278, #204, #203 ) ) REPRESENTATION_CONTEXT ( 'NONE', 'WORKASPACE' ) );
#202 = UNCERTAINTY_MEASURE_WITH_UNIT (LENGTH_MEASURE( 1.000000000000000100E-005 ), #278, 'distance_accuracy_value', 'NONE');
#203 =( NAMED_UNIT ( * ) SI_UNIT ( $, .STERADIAN. ) SOLID_ANGLE_UNIT ( ) );
#204 =( NAMED_UNIT ( * ) PLANE_ANGLE_UNIT ( ) SI_UNIT ( $, .RADIAN. ) );
#205 = SURFACE_SIDE_STYLE ('',( #194 ) ) ;
#206 = FILL_AREA_STYLE ('',( #207 ) ) ;
#207 = FILL_AREA_STYLE_COLOUR ( '', #195 ) ;
#208 = DIRECTION ( 'NONE',  ( 0.0000000000000000000, 0.0000000000000000000, -1.000000000000000000 ) ) ;
#209 = DIRECTION ( 'NONE',  ( 1.000000000000000000, 0.0000000000000000000, 0.0000000000000000000 ) ) ;
#210 = CARTESIAN_POINT ( 'NONE',  ( 0.0000000000000000000, 0.0000000000000000000, 0.0000000000000000000 ) ) ;
#211 = AXIS2_PLACEMENT_3D ( 'NONE', #210, #209, #208 ) ;
#212 = CIRCLE ( 'NONE', #211, 3.250000000000000400 ) ;
#213 = CIRCLE ( 'NONE', #328, 5.000000000000000000 ) ;
#214 = CARTESIAN_POINT ( 'NONE',  ( 100.0000000000000000, 6.123233995736765300E-016, -5.000000000000000000 ) ) ;
#215 = CARTESIAN_POINT ( 'NONE',  ( 114.1421356237309700, 0.0000000000000000000, 0.0000000000000000000 ) ) ;
#216 =( GEOMETRIC_REPRESENTATION_CONTEXT ( 3 ) GLOBAL_UNCERTAINTY_ASSIGNED_CONTEXT ( ( #217 ) ) GLOBAL_UNIT_ASSIGNED_CONTEXT ( ( #252, #219, #218 ) ) REPRESENTATION_CONTEXT ( 'NONE', 'WORKASPACE' ) );
#217 = UNCERTAINTY_MEASURE_WITH_UNIT (LENGTH_MEASURE( 1.000000000000000100E-005 ), #252, 'distance_accuracy_value', 'NONE');
#218 =( NAMED_UNIT ( * ) SI_UNIT ( $, .STERADIAN. ) SOLID_ANGLE_UNIT ( ) );
#219 =( NAMED_UNIT ( * ) PLANE_ANGLE_UNIT ( ) SI_UNIT ( $, .RADIAN. ) );
#220 = AXIS2_PLACEMENT_3D ( 'NONE', #215, #231, #230 ) ;
#221 = CIRCLE ( 'NONE', #226, 3.250000000000000400 ) ;
#222 = COLOUR_RGB ( '',0.2470588235294117800, 0.6470588235294118000, 1.000000000000000000 ) ;
#223 = DIRECTION ( 'NONE',  ( 0.0000000000000000000, 0.0000000000000000000, -1.000000000000000000 ) ) ;
#224 = DIRECTION ( 'NONE',  ( 1.000000000000000000, 0.0000000000000000000, 0.0000000000000000000 ) ) ;
#225 = CARTESIAN_POINT ( 'NONE',  ( 100.0000000000000000, 0.0000000000000000000, 0.0000000000000000000 ) ) ;
#226 = AXIS2_PLACEMENT_3D ( 'NONE', #225, #224, #223 ) ;
#227 = FILL_AREA_STYLE_COLOUR ( '', #222 ) ;
#228 = CARTESIAN_POINT ( 'NONE',  ( 0.0000000000000000000, 3.980102097228897200E-016, -3.250000000000000400 ) ) ;
#229 = CARTESIAN_POINT ( 'NONE',  ( 100.0000000000000000, 0.0000000000000000000, 3.250000000000000400 ) ) ;
#230 = DIRECTION ( 'NONE',  ( 0.0000000000000000000, 0.0000000000000000000, 1.000000000000000000 ) ) ;
#231 = DIRECTION ( 'NONE',  ( -1.000000000000000000, -0.0000000000000000000, -0.0000000000000000000 ) ) ;
#232 = SURFACE_STYLE_FILL_AREA ( #260 ) ;
#233 = PRODUCT ( 'TU1065BU-20.step', 'TU1065BU-20.step', '', ( #234 ) ) ;
#234 = PRODUCT_CONTEXT ( 'NONE', #236, 'mechanical' ) ;
#235 = APPLICATION_PROTOCOL_DEFINITION ( 'draft international standard', 'automotive_design', 1998, #236 ) ;
#236 = APPLICATION_CONTEXT ( 'automotive_design' ) ;
#237 = APPLICATION_CONTEXT ( 'automotive_design' ) ;
#238 = PRODUCT_DEFINITION ( 'UNKNOWN', '', #5, #239 ) ;
#239 = PRODUCT_DEFINITION_CONTEXT ( 'detailed design', #241, 'design' ) ;
#240 = APPLICATION_PROTOCOL_DEFINITION ( 'draft international standard', 'automotive_design', 1998, #241 ) ;
#241 = APPLICATION_CONTEXT ( 'automotive_design' ) ;
#242 = PRODUCT ( 'TU1065BU-20.step_TU3076 Tube_1065BU', 'TU1065BU-20.step_TU3076 Tube_1065BU', '', ( #243 ) ) ;
#243 = PRODUCT_CONTEXT ( 'NONE', #237, 'mechanical' ) ;
#244 = APPLICATION_PROTOCOL_DEFINITION ( 'draft international standard', 'automotive_design', 1998, #237 ) ;
#245 = PRODUCT_DEFINITION_SHAPE ( 'NONE', 'NONE',  #248 ) ;
#246 = PRODUCT_RELATED_PRODUCT_CATEGORY ( 'part', '', ( #233 ) ) ;
#247 = PRODUCT_DEFINITION_FORMATION_WITH_SPECIFIED_SOURCE ( 'ANY', '', #233, .NOT_KNOWN. ) ;
#248 = PRODUCT_DEFINITION ( 'UNKNOWN', '', #247, #249 ) ;
#249 = PRODUCT_DEFINITION_CONTEXT ( 'detailed design', #251, 'design' ) ;
#250 = APPLICATION_PROTOCOL_DEFINITION ( 'draft international standard', 'automotive_design', 1998, #251 ) ;
#251 = APPLICATION_CONTEXT ( 'automotive_design' ) ;
#252 =( LENGTH_UNIT ( ) NAMED_UNIT ( * ) SI_UNIT ( .MILLI., .METRE. ) );
#253 = MECHANICAL_DESIGN_GEOMETRIC_PRESENTATION_REPRESENTATION (  '', ( #255 ), #216 ) ;
#254 = PRESENTATION_LAYER_ASSIGNMENT (  '', '', ( #255 ) ) ;
#255 = STYLED_ITEM ( 'NONE', ( #256 ), #42 ) ;
#256 = PRESENTATION_STYLE_ASSIGNMENT (( #292 ) ) ;
#257 = CIRCLE ( 'NONE', #340, 3.250000000000000400 ) ;
#258 = FACE_OUTER_BOUND ( 'NONE', #71, .T. ) ;
#259 = AXIS2_PLACEMENT_3D ( 'NONE', #296, #295, #294 ) ;
#260 = FILL_AREA_STYLE ('',( #227 ) ) ;
#261 = DIRECTION ( 'NONE',  ( 0.0000000000000000000, 0.0000000000000000000, 1.000000000000000000 ) ) ;
#262 = CARTESIAN_POINT ( 'NONE',  ( 0.0000000000000000000, 0.0000000000000000000, 0.0000000000000000000 ) ) ;
#263 = AXIS2_PLACEMENT_3D ( 'NONE', #262, #261, #305 ) ;
#264 = DIRECTION ( 'NONE',  ( 1.000000000000000000, 0.0000000000000000000, 0.0000000000000000000 ) ) ;
#265 = DIRECTION ( 'NONE',  ( 0.0000000000000000000, 0.0000000000000000000, 1.000000000000000000 ) ) ;
#266 = CARTESIAN_POINT ( 'NONE',  ( 0.0000000000000000000, 0.0000000000000000000, 0.0000000000000000000 ) ) ;
#267 = AXIS2_PLACEMENT_3D ( 'NONE', #266, #265, #264 ) ;
#268 = SHAPE_REPRESENTATION ( 'TU1065BU-20.step', ( #280, #263 ), #300 ) ;
#269 = CARTESIAN_POINT ( 'NONE',  ( 0.0000000000000000000, 0.0000000000000000000, 0.0000000000000000000 ) ) ;
#270 = SHAPE_DEFINITION_REPRESENTATION ( #245, #268 ) ;
#271 = DIRECTION ( 'NONE',  ( 1.000000000000000000, 0.0000000000000000000, 0.0000000000000000000 ) ) ;
#272 = DIRECTION ( 'NONE',  ( 0.0000000000000000000, 0.0000000000000000000, 1.000000000000000000 ) ) ;
#273 = SHAPE_REPRESENTATION_RELATIONSHIP ( 'NONE' , 'NONE' ,  #274, #200 ) ;
#274 = SHAPE_REPRESENTATION ( 'TU1065BU-20.step_TU3076 Tube_1065BU', ( #199 ), #201 ) ;
#275 =( GEOMETRIC_REPRESENTATION_CONTEXT ( 3 ) GLOBAL_UNCERTAINTY_ASSIGNED_CONTEXT ( ( #276 ) ) GLOBAL_UNIT_ASSIGNED_CONTEXT ( ( #188, #187, #277 ) ) REPRESENTATION_CONTEXT ( 'NONE', 'WORKASPACE' ) );
#276 = UNCERTAINTY_MEASURE_WITH_UNIT (LENGTH_MEASURE( 1.000000000000000100E-005 ), #188, 'distance_accuracy_value', 'NONE');
#277 =( NAMED_UNIT ( * ) SI_UNIT ( $, .STERADIAN. ) SOLID_ANGLE_UNIT ( ) );
#278 =( LENGTH_UNIT ( ) NAMED_UNIT ( * ) SI_UNIT ( .MILLI., .METRE. ) );
#279 = DIRECTION ( 'NONE',  ( 0.0000000000000000000, 0.0000000000000000000, 1.000000000000000000 ) ) ;
#280 = AXIS2_PLACEMENT_3D ( 'NONE', #269, #272, #271 ) ;
#281 =( GEOMETRIC_REPRESENTATION_CONTEXT ( 3 ) GLOBAL_UNCERTAINTY_ASSIGNED_CONTEXT ( ( #282 ) ) GLOBAL_UNIT_ASSIGNED_CONTEXT ( ( #285, #284, #283 ) ) REPRESENTATION_CONTEXT ( 'NONE', 'WORKASPACE' ) );
#282 = UNCERTAINTY_MEASURE_WITH_UNIT (LENGTH_MEASURE( 1.000000000000000100E-005 ), #285, 'distance_accuracy_value', 'NONE');
#283 =( NAMED_UNIT ( * ) SI_UNIT ( $, .STERADIAN. ) SOLID_ANGLE_UNIT ( ) );
#284 =( NAMED_UNIT ( * ) PLANE_ANGLE_UNIT ( ) SI_UNIT ( $, .RADIAN. ) );
#285 =( LENGTH_UNIT ( ) NAMED_UNIT ( * ) SI_UNIT ( .MILLI., .METRE. ) );
#286 = MECHANICAL_DESIGN_GEOMETRIC_PRESENTATION_REPRESENTATION (  '', ( #288 ), #281 ) ;
#287 = PRESENTATION_LAYER_ASSIGNMENT (  '', '', ( #288 ) ) ;
#288 = STYLED_ITEM ( 'NONE', ( #311 ), #72 ) ;
#289 = DIRECTION ( 'NONE',  ( -1.000000000000000000, -0.0000000000000000000, -0.0000000000000000000 ) ) ;
#290 = VECTOR ( 'NONE', #289, 1000.000000000000000 ) ;
#291 = CARTESIAN_POINT ( 'NONE',  ( 114.1421356237309700, 6.123233995736765300E-016, -5.000000000000000000 ) ) ;
#292 = SURFACE_STYLE_USAGE ( .BOTH. , #293 ) ;
#293 = SURFACE_SIDE_STYLE ('',( #232 ) ) ;
#294 = DIRECTION ( 'NONE',  ( 0.0000000000000000000, 0.0000000000000000000, -1.000000000000000000 ) ) ;
#295 = DIRECTION ( 'NONE',  ( 1.000000000000000000, 0.0000000000000000000, 0.0000000000000000000 ) ) ;
#296 = CARTESIAN_POINT ( 'NONE',  ( 100.0000000000000000, 0.0000000000000000000, 0.0000000000000000000 ) ) ;
#297 = CIRCLE ( 'NONE', #259, 5.000000000000000000 ) ;
#298 = LINE ( 'NONE', #291, #290 ) ;
#299 = CYLINDRICAL_SURFACE ( 'NONE', #220, 3.250000000000000400 ) ;
#300 =( GEOMETRIC_REPRESENTATION_CONTEXT ( 3 ) GLOBAL_UNCERTAINTY_ASSIGNED_CONTEXT ( ( #301 ) ) GLOBAL_UNIT_ASSIGNED_CONTEXT ( ( #304, #303, #302 ) ) REPRESENTATION_CONTEXT ( 'NONE', 'WORKASPACE' ) );
#301 = UNCERTAINTY_MEASURE_WITH_UNIT (LENGTH_MEASURE( 1.000000000000000100E-005 ), #304, 'distance_accuracy_value', 'NONE');
#302 =( NAMED_UNIT ( * ) SI_UNIT ( $, .STERADIAN. ) SOLID_ANGLE_UNIT ( ) );
#303 =( NAMED_UNIT ( * ) PLANE_ANGLE_UNIT ( ) SI_UNIT ( $, .RADIAN. ) );
#304 =( LENGTH_UNIT ( ) NAMED_UNIT ( * ) SI_UNIT ( .MILLI., .METRE. ) );
#305 = DIRECTION ( 'NONE',  ( 1.000000000000000000, 0.0000000000000000000, 0.0000000000000000000 ) ) ;
#306 = SURFACE_STYLE_FILL_AREA ( #307 ) ;
#307 = FILL_AREA_STYLE ('',( #308 ) ) ;
#308 = FILL_AREA_STYLE_COLOUR ( '', #324 ) ;
#309 = CYLINDRICAL_SURFACE ( 'NONE', #320, 5.000000000000000000 ) ;
#310 = DIRECTION ( 'NONE',  ( -1.000000000000000000, -0.0000000000000000000, -0.0000000000000000000 ) ) ;
#311 = PRESENTATION_STYLE_ASSIGNMENT (( #312 ) ) ;
#312 = SURFACE_STYLE_USAGE ( .BOTH. , #313 ) ;
#313 = SURFACE_SIDE_STYLE ('',( #306 ) ) ;
#314 = DIRECTION ( 'NONE',  ( -1.000000000000000000, -0.0000000000000000000, -0.0000000000000000000 ) ) ;
#315 = VECTOR ( 'NONE', #314, 1000.000000000000000 ) ;
#316 = LINE ( 'NONE', #323, #315 ) ;
#317 = FACE_OUTER_BOUND ( 'NONE', #34, .T. ) ;
#318 = CARTESIAN_POINT ( 'NONE',  ( 100.0000000000000000, 3.980102097228897200E-016, -3.250000000000000400 ) ) ;
#319 = CARTESIAN_POINT ( 'NONE',  ( 100.0000000000000000, 0.0000000000000000000, 5.000000000000000000 ) ) ;
#320 = AXIS2_PLACEMENT_3D ( 'NONE', #329, #310, #279 ) ;
#321 = DIRECTION ( 'NONE',  ( 0.0000000000000000000, 0.0000000000000000000, -1.000000000000000000 ) ) ;
#322 = DIRECTION ( 'NONE',  ( 1.000000000000000000, 0.0000000000000000000, 0.0000000000000000000 ) ) ;
#323 = CARTESIAN_POINT ( 'NONE',  ( 114.1421356237309700, 0.0000000000000000000, 5.000000000000000000 ) ) ;
#324 = COLOUR_RGB ( '',0.2470588235294117800, 0.6470588235294118000, 1.000000000000000000 ) ;
#325 = DIRECTION ( 'NONE',  ( 0.0000000000000000000, 0.0000000000000000000, -1.000000000000000000 ) ) ;
#326 = DIRECTION ( 'NONE',  ( 1.000000000000000000, 0.0000000000000000000, 0.0000000000000000000 ) ) ;
#327 = CARTESIAN_POINT ( 'NONE',  ( 0.0000000000000000000, 0.0000000000000000000, 0.0000000000000000000 ) ) ;
#328 = AXIS2_PLACEMENT_3D ( 'NONE', #330, #322, #321 ) ;
#329 = CARTESIAN_POINT ( 'NONE',  ( 114.1421356237309700, 0.0000000000000000000, 0.0000000000000000000 ) ) ;
#330 = CARTESIAN_POINT ( 'NONE',  ( 0.0000000000000000000, 0.0000000000000000000, 0.0000000000000000000 ) ) ;
#331 = CIRCLE ( 'NONE', #334, 5.000000000000000000 ) ;
#332 = DIRECTION ( 'NONE',  ( -1.000000000000000000, -0.0000000000000000000, -0.0000000000000000000 ) ) ;
#333 = VECTOR ( 'NONE', #332, 1000.000000000000000 ) ;
#334 = AXIS2_PLACEMENT_3D ( 'NONE', #327, #326, #325 ) ;
#335 = DIRECTION ( 'NONE',  ( 0.0000000000000000000, 0.0000000000000000000, -1.000000000000000000 ) ) ;
#336 = DIRECTION ( 'NONE',  ( 1.000000000000000000, 0.0000000000000000000, 0.0000000000000000000 ) ) ;
#337 = CARTESIAN_POINT ( 'NONE',  ( 100.0000000000000000, 0.0000000000000000000, 0.0000000000000000000 ) ) ;
#338 = CARTESIAN_POINT ( 'NONE',  ( 114.1421356237309700, 3.980102097228897200E-016, -3.250000000000000400 ) ) ;
#339 = LINE ( 'NONE', #338, #333 ) ;
#340 = AXIS2_PLACEMENT_3D ( 'NONE', #337, #336, #335 ) ;
#341 = CARTESIAN_POINT ( 'NONE',  ( 0.0000000000000000000, 0.0000000000000000000, 5.000000000000000000 ) ) ;
ENDSEC;
END-ISO-10303-21;
