ISO-10303-21;
HEADER;
FILE_DESCRIPTION (( 'STEP AP214' ),
    '1' );
FILE_NAME ('TU1208C-100.step.step',
    '2018-06-27T15:16:23',
    ( '' ),
    ( '' ),
    'SwSTEP 2.0',
    'SolidWorks 2018',
    '' );
FILE_SCHEMA (( 'AUTOMOTIVE_DESIGN' ));
ENDSEC;

DATA;
#1 = COLOUR_RGB ( '',0.0000000000000000000, 0.5843137254901961120, 0.9058823529411764719 ) ;
#2 = EDGE_LOOP ( 'NONE', ( #51, #199, #332, #158 ) ) ;
#3 = FILL_AREA_STYLE ('',( #83 ) ) ;
#4 = DIRECTION ( 'NONE',  ( 0.0000000000000000000, 0.0000000000000000000, 1.000000000000000000 ) ) ;
#5 = CARTESIAN_POINT ( 'NONE',  ( 0.0000000000000000000, 0.0000000000000000000, 0.0000000000000000000 ) ) ;
#6 = SHAPE_DEFINITION_REPRESENTATION ( #277, #295 ) ;
#7 = PRESENTATION_STYLE_ASSIGNMENT (( #129 ) ) ;
#8 = CARTESIAN_POINT ( 'NONE',  ( 116.9705627484771355, 7.347880794884120722E-16, -6.000000000000000888 ) ) ;
#9 = EDGE_CURVE ( 'NONE', #318, #208, #98, .T. ) ;
#10 = FILL_AREA_STYLE_COLOUR ( '', #272 ) ;
#11 = CARTESIAN_POINT ( 'NONE',  ( 0.0000000000000000000, 0.0000000000000000000, 0.0000000000000000000 ) ) ;
#12 = PRODUCT_DEFINITION ( 'UNKNOWN', '', #29, #334 ) ;
#13 = ORIENTED_EDGE ( 'NONE', *, *, #17, .F. ) ;
#14 = MECHANICAL_DESIGN_GEOMETRIC_PRESENTATION_REPRESENTATION (  '', ( #121 ), #25 ) ;
#15 = CYLINDRICAL_SURFACE ( 'NONE', #268, 4.000000000000000000 ) ;
#16 = SURFACE_STYLE_FILL_AREA ( #95 ) ;
#17 = EDGE_CURVE ( 'NONE', #318, #67, #27, .T. ) ;
#18 = UNCERTAINTY_MEASURE_WITH_UNIT (LENGTH_MEASURE( 1.000000000000000082E-05 ), #322, 'distance_accuracy_value', 'NONE');
#19 = CIRCLE ( 'NONE', #141, 6.000000000000000888 ) ;
#20 = PRESENTATION_LAYER_ASSIGNMENT (  '', '', ( #340 ) ) ;
#21 = DIRECTION ( 'NONE',  ( 0.0000000000000000000, 0.0000000000000000000, -1.000000000000000000 ) ) ;
#22 = FILL_AREA_STYLE_COLOUR ( '', #1 ) ;
#23 = CARTESIAN_POINT ( 'NONE',  ( 100.0000000000000000, 0.0000000000000000000, 0.0000000000000000000 ) ) ;
#24 = CARTESIAN_POINT ( 'NONE',  ( 100.0000000000000000, 4.898587196589412829E-16, -4.000000000000000000 ) ) ;
#25 =( GEOMETRIC_REPRESENTATION_CONTEXT ( 3 ) GLOBAL_UNCERTAINTY_ASSIGNED_CONTEXT ( ( #242 ) ) GLOBAL_UNIT_ASSIGNED_CONTEXT ( ( #315, #103, #278 ) ) REPRESENTATION_CONTEXT ( 'NONE', 'WORKASPACE' ) );
#26 = SURFACE_STYLE_FILL_AREA ( #108 ) ;
#27 = LINE ( 'NONE', #72, #214 ) ;
#28 = DIRECTION ( 'NONE',  ( 1.000000000000000000, 0.0000000000000000000, 0.0000000000000000000 ) ) ;
#29 = PRODUCT_DEFINITION_FORMATION_WITH_SPECIFIED_SOURCE ( 'ANY', '', #194, .NOT_KNOWN. ) ;
#30 =( NAMED_UNIT ( * ) PLANE_ANGLE_UNIT ( ) SI_UNIT ( $, .RADIAN. ) );
#31 =( NAMED_UNIT ( * ) PLANE_ANGLE_UNIT ( ) SI_UNIT ( $, .RADIAN. ) );
#32 =( NAMED_UNIT ( * ) SI_UNIT ( $, .STERADIAN. ) SOLID_ANGLE_UNIT ( ) );
#33 = DIRECTION ( 'NONE',  ( -1.000000000000000000, -0.0000000000000000000, -0.0000000000000000000 ) ) ;
#34 =( NAMED_UNIT ( * ) PLANE_ANGLE_UNIT ( ) SI_UNIT ( $, .RADIAN. ) );
#35 = DIRECTION ( 'NONE',  ( 0.0000000000000000000, 0.0000000000000000000, 1.000000000000000000 ) ) ;
#36 = DIRECTION ( 'NONE',  ( 0.0000000000000000000, 0.0000000000000000000, -1.000000000000000000 ) ) ;
#37 = APPLICATION_CONTEXT ( 'automotive_design' ) ;
#38 = EDGE_LOOP ( 'NONE', ( #324, #168, #147, #45 ) ) ;
#39 = DIRECTION ( 'NONE',  ( -1.000000000000000000, -0.0000000000000000000, -0.0000000000000000000 ) ) ;
#40 =( GEOMETRIC_REPRESENTATION_CONTEXT ( 3 ) GLOBAL_UNCERTAINTY_ASSIGNED_CONTEXT ( ( #201 ) ) GLOBAL_UNIT_ASSIGNED_CONTEXT ( ( #252, #53, #78 ) ) REPRESENTATION_CONTEXT ( 'NONE', 'WORKASPACE' ) );
#41 = CARTESIAN_POINT ( 'NONE',  ( 100.0000000000000000, 0.0000000000000000000, 0.0000000000000000000 ) ) ;
#42 = CARTESIAN_POINT ( 'NONE',  ( 0.0000000000000000000, 4.898587196589412829E-16, -4.000000000000000000 ) ) ;
#43 = ORIENTED_EDGE ( 'NONE', *, *, #188, .F. ) ;
#44 = AXIS2_PLACEMENT_3D ( 'NONE', #279, #182, #59 ) ;
#45 = ORIENTED_EDGE ( 'NONE', *, *, #197, .F. ) ;
#46 = AXIS2_PLACEMENT_3D ( 'NONE', #11, #189, #215 ) ;
#47 = SURFACE_SIDE_STYLE ('',( #198 ) ) ;
#48 = SURFACE_SIDE_STYLE ('',( #150 ) ) ;
#49 = SURFACE_STYLE_FILL_AREA ( #316 ) ;
#50 = PRESENTATION_LAYER_ASSIGNMENT (  '', '', ( #68 ) ) ;
#51 = ORIENTED_EDGE ( 'NONE', *, *, #58, .F. ) ;
#52 = FILL_AREA_STYLE ('',( #275 ) ) ;
#53 =( NAMED_UNIT ( * ) PLANE_ANGLE_UNIT ( ) SI_UNIT ( $, .RADIAN. ) );
#54 = ORIENTED_EDGE ( 'NONE', *, *, #326, .T. ) ;
#55 = CARTESIAN_POINT ( 'NONE',  ( 100.0000000000000000, 7.347880794884120722E-16, -6.000000000000000888 ) ) ;
#56 = UNCERTAINTY_MEASURE_WITH_UNIT (LENGTH_MEASURE( 1.000000000000000082E-05 ), #70, 'distance_accuracy_value', 'NONE');
#57 = FILL_AREA_STYLE ('',( #338 ) ) ;
#58 = EDGE_CURVE ( 'NONE', #232, #218, #106, .T. ) ;
#59 = DIRECTION ( 'NONE',  ( 0.0000000000000000000, 0.0000000000000000000, 1.000000000000000000 ) ) ;
#60 = CONTEXT_DEPENDENT_SHAPE_REPRESENTATION ( #161, #245 ) ;
#61 = COLOUR_RGB ( '',0.9686274509803921573, 1.000000000000000000, 0.9803921568627450567 ) ;
#62 = VERTEX_POINT ( 'NONE', #42 ) ;
#63 = CARTESIAN_POINT ( 'NONE',  ( 0.0000000000000000000, 0.0000000000000000000, 0.0000000000000000000 ) ) ;
#64 = APPLICATION_CONTEXT ( 'automotive_design' ) ;
#65 = PRESENTATION_STYLE_ASSIGNMENT (( #280 ) ) ;
#66 = FACE_OUTER_BOUND ( 'NONE', #256, .T. ) ;
#67 = VERTEX_POINT ( 'NONE', #148 ) ;
#68 = STYLED_ITEM ( 'NONE', ( #7 ), #195 ) ;
#69 = SURFACE_STYLE_USAGE ( .BOTH. , #86 ) ;
#70 =( LENGTH_UNIT ( ) NAMED_UNIT ( * ) SI_UNIT ( .MILLI., .METRE. ) );
#71 = ORIENTED_EDGE ( 'NONE', *, *, #197, .T. ) ;
#72 = CARTESIAN_POINT ( 'NONE',  ( 116.9705627484771355, 0.0000000000000000000, 4.000000000000000000 ) ) ;
#73 = MECHANICAL_DESIGN_GEOMETRIC_PRESENTATION_REPRESENTATION (  '', ( #81 ), #76 ) ;
#74 = DIRECTION ( 'NONE',  ( 0.0000000000000000000, 0.0000000000000000000, -1.000000000000000000 ) ) ;
#75 = PRODUCT_DEFINITION_FORMATION_WITH_SPECIFIED_SOURCE ( 'ANY', '', #172, .NOT_KNOWN. ) ;
#76 =( GEOMETRIC_REPRESENTATION_CONTEXT ( 3 ) GLOBAL_UNCERTAINTY_ASSIGNED_CONTEXT ( ( #300 ) ) GLOBAL_UNIT_ASSIGNED_CONTEXT ( ( #257, #134, #104 ) ) REPRESENTATION_CONTEXT ( 'NONE', 'WORKASPACE' ) );
#77 =( NAMED_UNIT ( * ) PLANE_ANGLE_UNIT ( ) SI_UNIT ( $, .RADIAN. ) );
#78 =( NAMED_UNIT ( * ) SI_UNIT ( $, .STERADIAN. ) SOLID_ANGLE_UNIT ( ) );
#79 = CIRCLE ( 'NONE', #262, 4.000000000000000000 ) ;
#80 = DIRECTION ( 'NONE',  ( -1.000000000000000000, -0.0000000000000000000, -0.0000000000000000000 ) ) ;
#81 = STYLED_ITEM ( 'NONE', ( #65 ), #236 ) ;
#82 = UNCERTAINTY_MEASURE_WITH_UNIT (LENGTH_MEASURE( 1.000000000000000082E-05 ), #181, 'distance_accuracy_value', 'NONE');
#83 = FILL_AREA_STYLE_COLOUR ( '', #290 ) ;
#84 = DIRECTION ( 'NONE',  ( 1.000000000000000000, 0.0000000000000000000, 0.0000000000000000000 ) ) ;
#85 = DIRECTION ( 'NONE',  ( -1.000000000000000000, -0.0000000000000000000, -0.0000000000000000000 ) ) ;
#86 = SURFACE_SIDE_STYLE ('',( #173 ) ) ;
#87 = STYLED_ITEM ( 'NONE', ( #143 ), #239 ) ;
#88 = APPLICATION_PROTOCOL_DEFINITION ( 'draft international standard', 'automotive_design', 1998, #263 ) ;
#89 = APPLICATION_PROTOCOL_DEFINITION ( 'draft international standard', 'automotive_design', 1998, #37 ) ;
#90 = CARTESIAN_POINT ( 'NONE',  ( 100.0000000000000000, 0.0000000000000000000, 4.000000000000000000 ) ) ;
#91 = CARTESIAN_POINT ( 'NONE',  ( 0.0000000000000000000, 0.0000000000000000000, 0.0000000000000000000 ) ) ;
#92 = COLOUR_RGB ( '',0.9686274509803921573, 1.000000000000000000, 0.9803921568627450567 ) ;
#93 = ORIENTED_EDGE ( 'NONE', *, *, #188, .T. ) ;
#94 = PRESENTATION_LAYER_ASSIGNMENT (  '', '', ( #87 ) ) ;
#95 = FILL_AREA_STYLE ('',( #220 ) ) ;
#96 = AXIS2_PLACEMENT_3D ( 'NONE', #5, #4, #138 ) ;
#97 = COLOUR_RGB ( '',0.9686274509803921573, 1.000000000000000000, 0.9803921568627450567 ) ;
#98 = CIRCLE ( 'NONE', #281, 4.000000000000000000 ) ;
#99 = CARTESIAN_POINT ( 'NONE',  ( 0.0000000000000000000, 0.0000000000000000000, 0.0000000000000000000 ) ) ;
#100 = CARTESIAN_POINT ( 'NONE',  ( 100.0000000000000000, 0.0000000000000000000, 0.0000000000000000000 ) ) ;
#101 = AXIS2_PLACEMENT_3D ( 'NONE', #319, #321, #267 ) ;
#102 = ORIENTED_EDGE ( 'NONE', *, *, #9, .F. ) ;
#103 =( NAMED_UNIT ( * ) PLANE_ANGLE_UNIT ( ) SI_UNIT ( $, .RADIAN. ) );
#104 =( NAMED_UNIT ( * ) SI_UNIT ( $, .STERADIAN. ) SOLID_ANGLE_UNIT ( ) );
#105 = SURFACE_STYLE_FILL_AREA ( #3 ) ;
#106 = CIRCLE ( 'NONE', #165, 6.000000000000000888 ) ;
#107 = EDGE_LOOP ( 'NONE', ( #184, #43, #54, #309 ) ) ;
#108 = FILL_AREA_STYLE ('',( #128 ) ) ;
#109 = AXIS2_PLACEMENT_3D ( 'NONE', #23, #203, #21 ) ;
#110 = DIRECTION ( 'NONE',  ( -1.000000000000000000, -0.0000000000000000000, -0.0000000000000000000 ) ) ;
#111 = LINE ( 'NONE', #8, #337 ) ;
#112 = VERTEX_POINT ( 'NONE', #167 ) ;
#113 = APPLICATION_PROTOCOL_DEFINITION ( 'draft international standard', 'automotive_design', 1998, #64 ) ;
#114 = DIRECTION ( 'NONE',  ( -1.000000000000000000, -0.0000000000000000000, -0.0000000000000000000 ) ) ;
#115 = PRODUCT_RELATED_PRODUCT_CATEGORY ( 'part', '', ( #194 ) ) ;
#116 = CIRCLE ( 'NONE', #231, 4.000000000000000000 ) ;
#117 = MECHANICAL_DESIGN_GEOMETRIC_PRESENTATION_REPRESENTATION (  '', ( #87 ), #238 ) ;
#118 = DIRECTION ( 'NONE',  ( -1.000000000000000000, -0.0000000000000000000, -0.0000000000000000000 ) ) ;
#119 = EDGE_LOOP ( 'NONE', ( #328, #71 ) ) ;
#120 = ADVANCED_FACE ( 'NONE', ( #291, #179 ), #243, .T. ) ;
#121 = STYLED_ITEM ( 'NONE', ( #222 ), #219 ) ;
#122 = UNCERTAINTY_MEASURE_WITH_UNIT (LENGTH_MEASURE( 1.000000000000000082E-05 ), #234, 'distance_accuracy_value', 'NONE');
#123 =( GEOMETRIC_REPRESENTATION_CONTEXT ( 3 ) GLOBAL_UNCERTAINTY_ASSIGNED_CONTEXT ( ( #18 ) ) GLOBAL_UNIT_ASSIGNED_CONTEXT ( ( #322, #237, #164 ) ) REPRESENTATION_CONTEXT ( 'NONE', 'WORKASPACE' ) );
#124 = LINE ( 'NONE', #145, #323 ) ;
#125 = ORIENTED_EDGE ( 'NONE', *, *, #299, .F. ) ;
#126 =( NAMED_UNIT ( * ) PLANE_ANGLE_UNIT ( ) SI_UNIT ( $, .RADIAN. ) );
#127 = AXIS2_PLACEMENT_3D ( 'NONE', #155, #80, #160 ) ;
#128 = FILL_AREA_STYLE_COLOUR ( '', #97 ) ;
#129 = SURFACE_STYLE_USAGE ( .BOTH. , #48 ) ;
#130 = COLOUR_RGB ( '',0.9686274509803921573, 1.000000000000000000, 0.9803921568627450567 ) ;
#131 = CARTESIAN_POINT ( 'NONE',  ( 116.9705627484771355, 0.0000000000000000000, 0.0000000000000000000 ) ) ;
#132 = CLOSED_SHELL ( 'NONE', ( #219, #213, #239, #192, #236, #120 ) ) ;
#133 = EDGE_CURVE ( 'NONE', #112, #335, #19, .T. ) ;
#134 =( NAMED_UNIT ( * ) PLANE_ANGLE_UNIT ( ) SI_UNIT ( $, .RADIAN. ) );
#135 = DIRECTION ( 'NONE',  ( 0.0000000000000000000, 0.0000000000000000000, 1.000000000000000000 ) ) ;
#136 = EDGE_LOOP ( 'NONE', ( #224, #233, #284, #13 ) ) ;
#137 = SURFACE_STYLE_USAGE ( .BOTH. , #156 ) ;
#138 = DIRECTION ( 'NONE',  ( 1.000000000000000000, 0.0000000000000000000, 0.0000000000000000000 ) ) ;
#139 = MECHANICAL_DESIGN_GEOMETRIC_PRESENTATION_REPRESENTATION (  '', ( #202 ), #292 ) ;
#140 = PRODUCT_CONTEXT ( 'NONE', #263, 'mechanical' ) ;
#141 = AXIS2_PLACEMENT_3D ( 'NONE', #271, #225, #228 ) ;
#142 = CARTESIAN_POINT ( 'NONE',  ( 0.0000000000000000000, 0.0000000000000000000, 6.000000000000000888 ) ) ;
#143 = PRESENTATION_STYLE_ASSIGNMENT (( #137 ) ) ;
#144 = UNCERTAINTY_MEASURE_WITH_UNIT (LENGTH_MEASURE( 1.000000000000000082E-05 ), #151, 'distance_accuracy_value', 'NONE');
#145 = CARTESIAN_POINT ( 'NONE',  ( 116.9705627484771355, 0.0000000000000000000, 6.000000000000000888 ) ) ;
#146 = PRESENTATION_LAYER_ASSIGNMENT (  '', '', ( #149 ) ) ;
#147 = ORIENTED_EDGE ( 'NONE', *, *, #17, .T. ) ;
#148 = CARTESIAN_POINT ( 'NONE',  ( 0.0000000000000000000, 0.0000000000000000000, 4.000000000000000000 ) ) ;
#149 = STYLED_ITEM ( 'NONE', ( #282 ), #297 ) ;
#150 = SURFACE_STYLE_FILL_AREA ( #200 ) ;
#151 =( LENGTH_UNIT ( ) NAMED_UNIT ( * ) SI_UNIT ( .MILLI., .METRE. ) );
#152 = AXIS2_PLACEMENT_3D ( 'NONE', #100, #177, #333 ) ;
#153 = DIRECTION ( 'NONE',  ( 0.0000000000000000000, 0.0000000000000000000, -1.000000000000000000 ) ) ;
#154 = PRESENTATION_LAYER_ASSIGNMENT (  '', '', ( #81 ) ) ;
#155 = CARTESIAN_POINT ( 'NONE',  ( 116.9705627484771355, 0.0000000000000000000, 0.0000000000000000000 ) ) ;
#156 = SURFACE_SIDE_STYLE ('',( #49 ) ) ;
#157 = PRESENTATION_STYLE_ASSIGNMENT (( #230 ) ) ;
#158 = ORIENTED_EDGE ( 'NONE', *, *, #326, .F. ) ;
#159 = CARTESIAN_POINT ( 'NONE',  ( 0.0000000000000000000, 0.0000000000000000000, 0.0000000000000000000 ) ) ;
#160 = DIRECTION ( 'NONE',  ( 0.0000000000000000000, 0.0000000000000000000, 1.000000000000000000 ) ) ;
#161 =( REPRESENTATION_RELATIONSHIP ('NONE','NONE', #185, #295 ) REPRESENTATION_RELATIONSHIP_WITH_TRANSFORMATION ( #259 )SHAPE_REPRESENTATION_RELATIONSHIP( ) );
#162 = FILL_AREA_STYLE ('',( #10 ) ) ;
#163 = PRODUCT_DEFINITION_CONTEXT ( 'detailed design', #64, 'design' ) ;
#164 =( NAMED_UNIT ( * ) SI_UNIT ( $, .STERADIAN. ) SOLID_ANGLE_UNIT ( ) );
#165 = AXIS2_PLACEMENT_3D ( 'NONE', #329, #221, #74 ) ;
#166 =( NAMED_UNIT ( * ) SI_UNIT ( $, .STERADIAN. ) SOLID_ANGLE_UNIT ( ) );
#167 = CARTESIAN_POINT ( 'NONE',  ( 0.0000000000000000000, 7.347880794884120722E-16, -6.000000000000000888 ) ) ;
#168 = ORIENTED_EDGE ( 'NONE', *, *, #217, .T. ) ;
#169 = PRODUCT_RELATED_PRODUCT_CATEGORY ( 'part', '', ( #172 ) ) ;
#170 = EDGE_LOOP ( 'NONE', ( #93, #304 ) ) ;
#171 = STYLED_ITEM ( 'NONE', ( #157 ), #213 ) ;
#172 = PRODUCT ( 'TU1208C-100.step', 'TU1208C-100.step', '', ( #289 ) ) ;
#173 = SURFACE_STYLE_FILL_AREA ( #162 ) ;
#174 = CYLINDRICAL_SURFACE ( 'NONE', #44, 6.000000000000000888 ) ;
#175 = ORIENTED_EDGE ( 'NONE', *, *, #133, .F. ) ;
#176 = PRODUCT_DEFINITION_SHAPE ( 'NONE', 'NONE',  #251 ) ;
#177 = DIRECTION ( 'NONE',  ( 1.000000000000000000, 0.0000000000000000000, 0.0000000000000000000 ) ) ;
#178 = CYLINDRICAL_SURFACE ( 'NONE', #127, 6.000000000000000888 ) ;
#179 = FACE_OUTER_BOUND ( 'NONE', #170, .T. ) ;
#180 = AXIS2_PLACEMENT_3D ( 'NONE', #99, #273, #153 ) ;
#181 =( LENGTH_UNIT ( ) NAMED_UNIT ( * ) SI_UNIT ( .MILLI., .METRE. ) );
#182 = DIRECTION ( 'NONE',  ( -1.000000000000000000, -0.0000000000000000000, -0.0000000000000000000 ) ) ;
#183 = SURFACE_SIDE_STYLE ('',( #105 ) ) ;
#184 = ORIENTED_EDGE ( 'NONE', *, *, #287, .F. ) ;
#185 = SHAPE_REPRESENTATION ( 'TU1208C-100.step', ( #46, #235 ), #306 ) ;
#186 =( LENGTH_UNIT ( ) NAMED_UNIT ( * ) SI_UNIT ( .MILLI., .METRE. ) );
#187 = AXIS2_PLACEMENT_3D ( 'NONE', #212, #296, #190 ) ;
#188 = EDGE_CURVE ( 'NONE', #218, #232, #266, .T. ) ;
#189 = DIRECTION ( 'NONE',  ( 0.0000000000000000000, 0.0000000000000000000, 1.000000000000000000 ) ) ;
#190 = DIRECTION ( 'NONE',  ( 1.000000000000000000, 0.0000000000000000000, 0.0000000000000000000 ) ) ;
#191 = APPLICATION_CONTEXT ( 'automotive_design' ) ;
#192 = ADVANCED_FACE ( 'NONE', ( #66, #303 ), #276, .F. ) ;
#193 =( GEOMETRIC_REPRESENTATION_CONTEXT ( 3 ) GLOBAL_UNCERTAINTY_ASSIGNED_CONTEXT ( ( #82 ) ) GLOBAL_UNIT_ASSIGNED_CONTEXT ( ( #181, #31, #209 ) ) REPRESENTATION_CONTEXT ( 'NONE', 'WORKASPACE' ) );
#194 = PRODUCT ( 'TU1208C-100.step_TU3076 Tube_1208C', 'TU1208C-100.step_TU3076 Tube_1208C', '', ( #140 ) ) ;
#195 = MANIFOLD_SOLID_BREP ( 'Tube', #132 ) ;
#196 = MECHANICAL_DESIGN_GEOMETRIC_PRESENTATION_REPRESENTATION (  '', ( #149 ), #247 ) ;
#197 = EDGE_CURVE ( 'NONE', #62, #67, #79, .T. ) ;
#198 = SURFACE_STYLE_FILL_AREA ( #52 ) ;
#199 = ORIENTED_EDGE ( 'NONE', *, *, #287, .T. ) ;
#200 = FILL_AREA_STYLE ('',( #22 ) ) ;
#201 = UNCERTAINTY_MEASURE_WITH_UNIT (LENGTH_MEASURE( 1.000000000000000082E-05 ), #252, 'distance_accuracy_value', 'NONE');
#202 = STYLED_ITEM ( 'NONE', ( #283 ), #192 ) ;
#203 = DIRECTION ( 'NONE',  ( 1.000000000000000000, 0.0000000000000000000, 0.0000000000000000000 ) ) ;
#204 =( NAMED_UNIT ( * ) SI_UNIT ( $, .STERADIAN. ) SOLID_ANGLE_UNIT ( ) );
#205 = MECHANICAL_DESIGN_GEOMETRIC_PRESENTATION_REPRESENTATION (  '', ( #340 ), #210 ) ;
#206 = DIRECTION ( 'NONE',  ( 0.0000000000000000000, 0.0000000000000000000, 1.000000000000000000 ) ) ;
#207 = UNCERTAINTY_MEASURE_WITH_UNIT (LENGTH_MEASURE( 1.000000000000000082E-05 ), #186, 'distance_accuracy_value', 'NONE');
#208 = VERTEX_POINT ( 'NONE', #24 ) ;
#209 =( NAMED_UNIT ( * ) SI_UNIT ( $, .STERADIAN. ) SOLID_ANGLE_UNIT ( ) );
#210 =( GEOMETRIC_REPRESENTATION_CONTEXT ( 3 ) GLOBAL_UNCERTAINTY_ASSIGNED_CONTEXT ( ( #286 ) ) GLOBAL_UNIT_ASSIGNED_CONTEXT ( ( #226, #126, #204 ) ) REPRESENTATION_CONTEXT ( 'NONE', 'WORKASPACE' ) );
#211 = CARTESIAN_POINT ( 'NONE',  ( 100.0000000000000000, 0.0000000000000000000, 0.0000000000000000000 ) ) ;
#212 = CARTESIAN_POINT ( 'NONE',  ( 0.0000000000000000000, 0.0000000000000000000, 0.0000000000000000000 ) ) ;
#213 = ADVANCED_FACE ( 'NONE', ( #313 ), #178, .T. ) ;
#214 = VECTOR ( 'NONE', #39, 1000.000000000000000 ) ;
#215 = DIRECTION ( 'NONE',  ( 1.000000000000000000, 0.0000000000000000000, 0.0000000000000000000 ) ) ;
#216 = DIRECTION ( 'NONE',  ( 1.000000000000000000, 0.0000000000000000000, 0.0000000000000000000 ) ) ;
#217 = EDGE_CURVE ( 'NONE', #208, #318, #116, .T. ) ;
#218 = VERTEX_POINT ( 'NONE', #253 ) ;
#219 = ADVANCED_FACE ( 'NONE', ( #261 ), #15, .F. ) ;
#220 = FILL_AREA_STYLE_COLOUR ( '', #92 ) ;
#221 = DIRECTION ( 'NONE',  ( 1.000000000000000000, 0.0000000000000000000, 0.0000000000000000000 ) ) ;
#222 = PRESENTATION_STYLE_ASSIGNMENT (( #310 ) ) ;
#223 = PRESENTATION_LAYER_ASSIGNMENT (  '', '', ( #202 ) ) ;
#224 = ORIENTED_EDGE ( 'NONE', *, *, #9, .T. ) ;
#225 = DIRECTION ( 'NONE',  ( 1.000000000000000000, 0.0000000000000000000, 0.0000000000000000000 ) ) ;
#226 =( LENGTH_UNIT ( ) NAMED_UNIT ( * ) SI_UNIT ( .MILLI., .METRE. ) );
#227 = SURFACE_STYLE_FILL_AREA ( #57 ) ;
#228 = DIRECTION ( 'NONE',  ( 0.0000000000000000000, 0.0000000000000000000, -1.000000000000000000 ) ) ;
#229 = DIRECTION ( 'NONE',  ( 0.0000000000000000000, 0.0000000000000000000, -1.000000000000000000 ) ) ;
#230 = SURFACE_STYLE_USAGE ( .BOTH. , #288 ) ;
#231 = AXIS2_PLACEMENT_3D ( 'NONE', #211, #84, #229 ) ;
#232 = VERTEX_POINT ( 'NONE', #55 ) ;
#233 = ORIENTED_EDGE ( 'NONE', *, *, #305, .T. ) ;
#234 =( LENGTH_UNIT ( ) NAMED_UNIT ( * ) SI_UNIT ( .MILLI., .METRE. ) );
#235 = AXIS2_PLACEMENT_3D ( 'NONE', #63, #35, #216 ) ;
#236 = ADVANCED_FACE ( 'NONE', ( #265 ), #298, .F. ) ;
#237 =( NAMED_UNIT ( * ) PLANE_ANGLE_UNIT ( ) SI_UNIT ( $, .RADIAN. ) );
#238 =( GEOMETRIC_REPRESENTATION_CONTEXT ( 3 ) GLOBAL_UNCERTAINTY_ASSIGNED_CONTEXT ( ( #56 ) ) GLOBAL_UNIT_ASSIGNED_CONTEXT ( ( #70, #30, #339 ) ) REPRESENTATION_CONTEXT ( 'NONE', 'WORKASPACE' ) );
#239 = ADVANCED_FACE ( 'NONE', ( #327 ), #174, .T. ) ;
#240 = CARTESIAN_POINT ( 'NONE',  ( 116.9705627484771355, 4.898587196589412829E-16, -4.000000000000000000 ) ) ;
#241 = SHAPE_REPRESENTATION_RELATIONSHIP ( 'NONE' , 'NONE' ,  #295, #297 ) ;
#242 = UNCERTAINTY_MEASURE_WITH_UNIT (LENGTH_MEASURE( 1.000000000000000082E-05 ), #315, 'distance_accuracy_value', 'NONE');
#243 = PLANE ( 'NONE',  #152 ) ;
#244 = MECHANICAL_DESIGN_GEOMETRIC_PRESENTATION_REPRESENTATION (  '', ( #68 ), #40 ) ;
#245 = PRODUCT_DEFINITION_SHAPE ( 'NONE', 'NONE',  #341 ) ;
#246 = COLOUR_RGB ( '',0.9686274509803921573, 1.000000000000000000, 0.9803921568627450567 ) ;
#247 =( GEOMETRIC_REPRESENTATION_CONTEXT ( 3 ) GLOBAL_UNCERTAINTY_ASSIGNED_CONTEXT ( ( #207 ) ) GLOBAL_UNIT_ASSIGNED_CONTEXT ( ( #186, #34, #32 ) ) REPRESENTATION_CONTEXT ( 'NONE', 'WORKASPACE' ) );
#248 = SURFACE_SIDE_STYLE ('',( #16 ) ) ;
#249 =( NAMED_UNIT ( * ) SI_UNIT ( $, .STERADIAN. ) SOLID_ANGLE_UNIT ( ) );
#250 = SURFACE_STYLE_USAGE ( .BOTH. , #248 ) ;
#251 = PRODUCT_DEFINITION ( 'UNKNOWN', '', #75, #163 ) ;
#252 =( LENGTH_UNIT ( ) NAMED_UNIT ( * ) SI_UNIT ( .MILLI., .METRE. ) );
#253 = CARTESIAN_POINT ( 'NONE',  ( 100.0000000000000000, 0.0000000000000000000, 6.000000000000000888 ) ) ;
#254 = EDGE_CURVE ( 'NONE', #67, #62, #308, .T. ) ;
#255 = VECTOR ( 'NONE', #118, 1000.000000000000000 ) ;
#256 = EDGE_LOOP ( 'NONE', ( #125, #175 ) ) ;
#257 =( LENGTH_UNIT ( ) NAMED_UNIT ( * ) SI_UNIT ( .MILLI., .METRE. ) );
#258 = SURFACE_SIDE_STYLE ('',( #227 ) ) ;
#259 = ITEM_DEFINED_TRANSFORMATION ( 'NONE', 'NONE', #235,  #96 ) ;
#260 = DIRECTION ( 'NONE',  ( 0.0000000000000000000, 0.0000000000000000000, -1.000000000000000000 ) ) ;
#261 = FACE_OUTER_BOUND ( 'NONE', #136, .T. ) ;
#262 = AXIS2_PLACEMENT_3D ( 'NONE', #159, #28, #260 ) ;
#263 = APPLICATION_CONTEXT ( 'automotive_design' ) ;
#264 = APPLICATION_PROTOCOL_DEFINITION ( 'draft international standard', 'automotive_design', 1998, #191 ) ;
#265 = FACE_OUTER_BOUND ( 'NONE', #38, .T. ) ;
#266 = CIRCLE ( 'NONE', #109, 6.000000000000000888 ) ;
#267 = DIRECTION ( 'NONE',  ( 0.0000000000000000000, 0.0000000000000000000, -1.000000000000000000 ) ) ;
#268 = AXIS2_PLACEMENT_3D ( 'NONE', #131, #110, #135 ) ;
#269 = PRESENTATION_STYLE_ASSIGNMENT (( #250 ) ) ;
#270 = EDGE_LOOP ( 'NONE', ( #102, #314 ) ) ;
#271 = CARTESIAN_POINT ( 'NONE',  ( 0.0000000000000000000, 0.0000000000000000000, 0.0000000000000000000 ) ) ;
#272 = COLOUR_RGB ( '',0.9686274509803921573, 1.000000000000000000, 0.9803921568627450567 ) ;
#273 = DIRECTION ( 'NONE',  ( 1.000000000000000000, 0.0000000000000000000, 0.0000000000000000000 ) ) ;
#274 = MECHANICAL_DESIGN_GEOMETRIC_PRESENTATION_REPRESENTATION (  '', ( #171 ), #193 ) ;
#275 = FILL_AREA_STYLE_COLOUR ( '', #246 ) ;
#276 = PLANE ( 'NONE',  #180 ) ;
#277 = PRODUCT_DEFINITION_SHAPE ( 'NONE', 'NONE',  #12 ) ;
#278 =( NAMED_UNIT ( * ) SI_UNIT ( $, .STERADIAN. ) SOLID_ANGLE_UNIT ( ) );
#279 = CARTESIAN_POINT ( 'NONE',  ( 116.9705627484771355, 0.0000000000000000000, 0.0000000000000000000 ) ) ;
#280 = SURFACE_STYLE_USAGE ( .BOTH. , #258 ) ;
#281 = AXIS2_PLACEMENT_3D ( 'NONE', #41, #294, #36 ) ;
#282 = PRESENTATION_STYLE_ASSIGNMENT (( #69 ) ) ;
#283 = PRESENTATION_STYLE_ASSIGNMENT (( #307 ) ) ;
#284 = ORIENTED_EDGE ( 'NONE', *, *, #254, .F. ) ;
#285 = CARTESIAN_POINT ( 'NONE',  ( 116.9705627484771355, 0.0000000000000000000, 0.0000000000000000000 ) ) ;
#286 = UNCERTAINTY_MEASURE_WITH_UNIT (LENGTH_MEASURE( 1.000000000000000082E-05 ), #226, 'distance_accuracy_value', 'NONE');
#287 = EDGE_CURVE ( 'NONE', #232, #112, #111, .T. ) ;
#288 = SURFACE_SIDE_STYLE ('',( #26 ) ) ;
#289 = PRODUCT_CONTEXT ( 'NONE', #191, 'mechanical' ) ;
#290 = COLOUR_RGB ( '',0.9686274509803921573, 1.000000000000000000, 0.9803921568627450567 ) ;
#291 = FACE_BOUND ( 'NONE', #270, .T. ) ;
#292 =( GEOMETRIC_REPRESENTATION_CONTEXT ( 3 ) GLOBAL_UNCERTAINTY_ASSIGNED_CONTEXT ( ( #144 ) ) GLOBAL_UNIT_ASSIGNED_CONTEXT ( ( #151, #77, #249 ) ) REPRESENTATION_CONTEXT ( 'NONE', 'WORKASPACE' ) );
#293 = DIRECTION ( 'NONE',  ( 1.000000000000000000, 0.0000000000000000000, 0.0000000000000000000 ) ) ;
#294 = DIRECTION ( 'NONE',  ( 1.000000000000000000, 0.0000000000000000000, 0.0000000000000000000 ) ) ;
#295 = SHAPE_REPRESENTATION ( 'TU1208C-100.step_TU3076 Tube_1208C', ( #96 ), #123 ) ;
#296 = DIRECTION ( 'NONE',  ( 0.0000000000000000000, 0.0000000000000000000, 1.000000000000000000 ) ) ;
#297 = ADVANCED_BREP_SHAPE_REPRESENTATION ( '', ( #195, #96 ), #123 ) ;
#298 = CYLINDRICAL_SURFACE ( 'NONE', #311, 4.000000000000000000 ) ;
#299 = EDGE_CURVE ( 'NONE', #335, #112, #302, .T. ) ;
#300 = UNCERTAINTY_MEASURE_WITH_UNIT (LENGTH_MEASURE( 1.000000000000000082E-05 ), #257, 'distance_accuracy_value', 'NONE');
#301 = SHAPE_DEFINITION_REPRESENTATION ( #176, #185 ) ;
#302 = CIRCLE ( 'NONE', #101, 6.000000000000000888 ) ;
#303 = FACE_BOUND ( 'NONE', #119, .T. ) ;
#304 = ORIENTED_EDGE ( 'NONE', *, *, #58, .T. ) ;
#305 = EDGE_CURVE ( 'NONE', #208, #62, #330, .T. ) ;
#306 =( GEOMETRIC_REPRESENTATION_CONTEXT ( 3 ) GLOBAL_UNCERTAINTY_ASSIGNED_CONTEXT ( ( #122 ) ) GLOBAL_UNIT_ASSIGNED_CONTEXT ( ( #234, #325, #166 ) ) REPRESENTATION_CONTEXT ( 'NONE', 'WORKASPACE' ) );
#307 = SURFACE_STYLE_USAGE ( .BOTH. , #47 ) ;
#308 = CIRCLE ( 'NONE', #331, 4.000000000000000000 ) ;
#309 = ORIENTED_EDGE ( 'NONE', *, *, #299, .T. ) ;
#310 = SURFACE_STYLE_USAGE ( .BOTH. , #183 ) ;
#311 = AXIS2_PLACEMENT_3D ( 'NONE', #285, #85, #206 ) ;
#312 = FILL_AREA_STYLE_COLOUR ( '', #61 ) ;
#313 = FACE_OUTER_BOUND ( 'NONE', #2, .T. ) ;
#314 = ORIENTED_EDGE ( 'NONE', *, *, #217, .F. ) ;
#315 =( LENGTH_UNIT ( ) NAMED_UNIT ( * ) SI_UNIT ( .MILLI., .METRE. ) );
#316 = FILL_AREA_STYLE ('',( #312 ) ) ;
#317 = PRESENTATION_LAYER_ASSIGNMENT (  '', '', ( #171 ) ) ;
#318 = VERTEX_POINT ( 'NONE', #90 ) ;
#319 = CARTESIAN_POINT ( 'NONE',  ( 0.0000000000000000000, 0.0000000000000000000, 0.0000000000000000000 ) ) ;
#320 = DIRECTION ( 'NONE',  ( 0.0000000000000000000, 0.0000000000000000000, -1.000000000000000000 ) ) ;
#321 = DIRECTION ( 'NONE',  ( 1.000000000000000000, 0.0000000000000000000, 0.0000000000000000000 ) ) ;
#322 =( LENGTH_UNIT ( ) NAMED_UNIT ( * ) SI_UNIT ( .MILLI., .METRE. ) );
#323 = VECTOR ( 'NONE', #33, 1000.000000000000000 ) ;
#324 = ORIENTED_EDGE ( 'NONE', *, *, #305, .F. ) ;
#325 =( NAMED_UNIT ( * ) PLANE_ANGLE_UNIT ( ) SI_UNIT ( $, .RADIAN. ) );
#326 = EDGE_CURVE ( 'NONE', #218, #335, #124, .T. ) ;
#327 = FACE_OUTER_BOUND ( 'NONE', #107, .T. ) ;
#328 = ORIENTED_EDGE ( 'NONE', *, *, #254, .T. ) ;
#329 = CARTESIAN_POINT ( 'NONE',  ( 100.0000000000000000, 0.0000000000000000000, 0.0000000000000000000 ) ) ;
#330 = LINE ( 'NONE', #240, #255 ) ;
#331 = AXIS2_PLACEMENT_3D ( 'NONE', #91, #293, #320 ) ;
#332 = ORIENTED_EDGE ( 'NONE', *, *, #133, .T. ) ;
#333 = DIRECTION ( 'NONE',  ( 0.0000000000000000000, 0.0000000000000000000, -1.000000000000000000 ) ) ;
#334 = PRODUCT_DEFINITION_CONTEXT ( 'detailed design', #37, 'design' ) ;
#335 = VERTEX_POINT ( 'NONE', #142 ) ;
#336 = PRESENTATION_LAYER_ASSIGNMENT (  '', '', ( #121 ) ) ;
#337 = VECTOR ( 'NONE', #114, 1000.000000000000000 ) ;
#338 = FILL_AREA_STYLE_COLOUR ( '', #130 ) ;
#339 =( NAMED_UNIT ( * ) SI_UNIT ( $, .STERADIAN. ) SOLID_ANGLE_UNIT ( ) );
#340 = STYLED_ITEM ( 'NONE', ( #269 ), #120 ) ;
#341 = NEXT_ASSEMBLY_USAGE_OCCURRENCE ( 'NAUO1', ' ', ' ', #251, #12, $ ) ;
ENDSEC;
END-ISO-10303-21;
