ISO-10303-21;
HEADER;
FILE_DESCRIPTION (( 'STEP AP214' ),
    '1' );
FILE_NAME ('TH0604N-20.step.step',
    '2012-09-24T12:01:44',
    ( 'SysAdmin' ),
    ( 'SolidWorks' ),
    'SwSTEP 2.0',
    'SolidWorks 2012',
    '' );
FILE_SCHEMA (( 'AUTOMOTIVE_DESIGN' ));
ENDSEC;

DATA;
#1 = CIRCLE ( 'NONE', #3, 2.000000000000000000 ) ;
#2 = CARTESIAN_POINT ( 'NONE',  ( 0.0000000000000000000, 0.0000000000000000000, -100.0000000000000700 ) ) ;
#3 = AXIS2_PLACEMENT_3D ( 'NONE', #2, #4, #5 ) ;
#4 = DIRECTION ( 'NONE',  ( 0.0000000000000000000, 0.0000000000000000000, 1.000000000000000000 ) ) ;
#5 = DIRECTION ( 'NONE',  ( 1.000000000000000000, 0.0000000000000000000, 0.0000000000000000000 ) ) ;
#6 = DIRECTION ( 'NONE',  ( 1.000000000000000000, 0.0000000000000000000, 0.0000000000000000000 ) ) ;
#7 = DIRECTION ( 'NONE',  ( 0.0000000000000000000, 0.0000000000000000000, 1.000000000000000000 ) ) ;
#8 = CARTESIAN_POINT ( 'NONE',  ( 0.0000000000000000000, 0.0000000000000000000, -100.0000000000000700 ) ) ;
#9 = CIRCLE ( 'NONE', #27, 3.000000000000000400 ) ;
#10 = CARTESIAN_POINT ( 'NONE',  ( 2.000000000000000000, 0.0000000000000000000, -100.0000000000000700 ) ) ;
#11 = CARTESIAN_POINT ( 'NONE',  ( -2.000000000000000000, 2.449293598294706400E-016, 0.0000000000000000000 ) ) ;
#12 = DIRECTION ( 'NONE',  ( 0.0000000000000000000, 0.0000000000000000000, 1.000000000000000000 ) ) ;
#13 = VECTOR ( 'NONE', #12, 1000.000000000000000 ) ;
#14 = CARTESIAN_POINT ( 'NONE',  ( -2.000000000000000000, 2.449293598294706400E-016, -100.0000000000000700 ) ) ;
#15 = LINE ( 'NONE', #14, #13 ) ;
#16 = CIRCLE ( 'NONE', #21, 3.000000000000000400 ) ;
#17 = DIRECTION ( 'NONE',  ( 1.000000000000000000, 0.0000000000000000000, 0.0000000000000000000 ) ) ;
#18 = DIRECTION ( 'NONE',  ( 0.0000000000000000000, 0.0000000000000000000, 1.000000000000000000 ) ) ;
#19 = CARTESIAN_POINT ( 'NONE',  ( 0.0000000000000000000, 0.0000000000000000000, -100.0000000000000700 ) ) ;
#20 = AXIS2_PLACEMENT_3D ( 'NONE', #19, #18, #17 ) ;
#21 = AXIS2_PLACEMENT_3D ( 'NONE', #37, #36, #35 ) ;
#22 = CYLINDRICAL_SURFACE ( 'NONE', #20, 2.000000000000000000 ) ;
#23 = FACE_OUTER_BOUND ( 'NONE', #60, .T. ) ;
#24 = DIRECTION ( 'NONE',  ( 1.000000000000000000, 0.0000000000000000000, 0.0000000000000000000 ) ) ;
#25 = DIRECTION ( 'NONE',  ( 0.0000000000000000000, 0.0000000000000000000, 1.000000000000000000 ) ) ;
#26 = CARTESIAN_POINT ( 'NONE',  ( 0.0000000000000000000, 0.0000000000000000000, -100.0000000000000700 ) ) ;
#27 = AXIS2_PLACEMENT_3D ( 'NONE', #8, #7, #6 ) ;
#28 = DIRECTION ( 'NONE',  ( 1.000000000000000000, 0.0000000000000000000, -0.0000000000000000000 ) ) ;
#29 = DIRECTION ( 'NONE',  ( 0.0000000000000000000, 0.0000000000000000000, 1.000000000000000000 ) ) ;
#30 = CARTESIAN_POINT ( 'NONE',  ( 0.0000000000000000000, 0.0000000000000000000, -100.0000000000000700 ) ) ;
#31 = CIRCLE ( 'NONE', #104, 2.000000000000000000 ) ;
#32 = DIRECTION ( 'NONE',  ( 1.000000000000000000, 0.0000000000000000000, 0.0000000000000000000 ) ) ;
#33 = DIRECTION ( 'NONE',  ( 0.0000000000000000000, 0.0000000000000000000, 1.000000000000000000 ) ) ;
#34 = AXIS2_PLACEMENT_3D ( 'NONE', #38, #33, #32 ) ;
#35 = DIRECTION ( 'NONE',  ( 1.000000000000000000, 0.0000000000000000000, 0.0000000000000000000 ) ) ;
#36 = DIRECTION ( 'NONE',  ( 0.0000000000000000000, 0.0000000000000000000, 1.000000000000000000 ) ) ;
#37 = CARTESIAN_POINT ( 'NONE',  ( 0.0000000000000000000, 0.0000000000000000000, -100.0000000000000700 ) ) ;
#38 = CARTESIAN_POINT ( 'NONE',  ( 0.0000000000000000000, 0.0000000000000000000, -100.0000000000000700 ) ) ;
#39 = CYLINDRICAL_SURFACE ( 'NONE', #34, 3.000000000000000400 ) ;
#40 = DIRECTION ( 'NONE',  ( 0.0000000000000000000, 0.0000000000000000000, 1.000000000000000000 ) ) ;
#41 = FACE_OUTER_BOUND ( 'NONE', #88, .T. ) ;
#42 = LINE ( 'NONE', #107, #106 ) ;
#43 = VECTOR ( 'NONE', #40, 1000.000000000000000 ) ;
#44 = CARTESIAN_POINT ( 'NONE',  ( 2.000000000000000000, 0.0000000000000000000, -100.0000000000000700 ) ) ;
#45 = LINE ( 'NONE', #44, #43 ) ;
#46 = DIRECTION ( 'NONE',  ( 1.000000000000000000, 0.0000000000000000000, 0.0000000000000000000 ) ) ;
#47 = DIRECTION ( 'NONE',  ( 0.0000000000000000000, 0.0000000000000000000, 1.000000000000000000 ) ) ;
#48 = CARTESIAN_POINT ( 'NONE',  ( 0.0000000000000000000, 0.0000000000000000000, 0.0000000000000000000 ) ) ;
#49 = AXIS2_PLACEMENT_3D ( 'NONE', #48, #47, #46 ) ;
#50 = CIRCLE ( 'NONE', #49, 2.000000000000000000 ) ;
#51 = FACE_OUTER_BOUND ( 'NONE', #77, .T. ) ;
#52 = ORIENTED_EDGE ( 'NONE', *, *, #131, .T. ) ;
#53 = EDGE_CURVE ( 'NONE', #54, #94, #120, .T. ) ;
#54 = VERTEX_POINT ( 'NONE', #68 ) ;
#55 = EDGE_CURVE ( 'NONE', #94, #54, #115, .T. ) ;
#56 = ORIENTED_EDGE ( 'NONE', *, *, #58, .F. ) ;
#57 = ORIENTED_EDGE ( 'NONE', *, *, #84, .F. ) ;
#58 = EDGE_CURVE ( 'NONE', #75, #54, #42, .T. ) ;
#59 = VERTEX_POINT ( 'NONE', #122 ) ;
#60 = EDGE_LOOP ( 'NONE', ( #78, #71, #79, #83 ) ) ;
#61 = ORIENTED_EDGE ( 'NONE', *, *, #66, .T. ) ;
#62 = CLOSED_SHELL ( 'NONE', ( #69, #85, #124, #65, #90, #99 ) ) ;
#63 = ORIENTED_EDGE ( 'NONE', *, *, #55, .F. ) ;
#64 = ORIENTED_EDGE ( 'NONE', *, *, #53, .T. ) ;
#65 = ADVANCED_FACE ( 'NONE', ( #109, #41 ), #121, .F. ) ;
#66 = EDGE_CURVE ( 'NONE', #59, #76, #31, .T. ) ;
#67 = EDGE_LOOP ( 'NONE', ( #86, #61 ) ) ;
#68 = CARTESIAN_POINT ( 'NONE',  ( 3.000000000000000400, 0.0000000000000000000, 0.0000000000000000000 ) ) ;
#69 = ADVANCED_FACE ( 'NONE', ( #23 ), #22, .F. ) ;
#70 = VERTEX_POINT ( 'NONE', #108 ) ;
#71 = ORIENTED_EDGE ( 'NONE', *, *, #72, .T. ) ;
#72 = EDGE_CURVE ( 'NONE', #59, #74, #15, .T. ) ;
#73 = EDGE_CURVE ( 'NONE', #93, #75, #9, .T. ) ;
#74 = VERTEX_POINT ( 'NONE', #11 ) ;
#75 = VERTEX_POINT ( 'NONE', #113 ) ;
#76 = VERTEX_POINT ( 'NONE', #10 ) ;
#77 = EDGE_LOOP ( 'NONE', ( #130, #52, #132, #56 ) ) ;
#78 = ORIENTED_EDGE ( 'NONE', *, *, #66, .F. ) ;
#79 = ORIENTED_EDGE ( 'NONE', *, *, #80, .T. ) ;
#80 = EDGE_CURVE ( 'NONE', #74, #70, #50, .T. ) ;
#81 = EDGE_LOOP ( 'NONE', ( #126, #123, #128, #63 ) ) ;
#82 = EDGE_CURVE ( 'NONE', #76, #70, #45, .T. ) ;
#83 = ORIENTED_EDGE ( 'NONE', *, *, #82, .F. ) ;
#84 = EDGE_CURVE ( 'NONE', #75, #93, #16, .T. ) ;
#85 = ADVANCED_FACE ( 'NONE', ( #51 ), #39, .T. ) ;
#86 = ORIENTED_EDGE ( 'NONE', *, *, #87, .T. ) ;
#87 = EDGE_CURVE ( 'NONE', #76, #59, #1, .T. ) ;
#88 = EDGE_LOOP ( 'NONE', ( #57, #89 ) ) ;
#89 = ORIENTED_EDGE ( 'NONE', *, *, #73, .F. ) ;
#90 = ADVANCED_FACE ( 'NONE', ( #211, #212 ), #230, .T. ) ;
#91 = ORIENTED_EDGE ( 'NONE', *, *, #80, .F. ) ;
#92 = EDGE_CURVE ( 'NONE', #70, #74, #238, .T. ) ;
#93 = VERTEX_POINT ( 'NONE', #231 ) ;
#94 = VERTEX_POINT ( 'NONE', #210 ) ;
#95 = MANIFOLD_SOLID_BREP ( 'Tube', #62 ) ;
#96 = ORIENTED_EDGE ( 'NONE', *, *, #92, .T. ) ;
#97 = AXIS2_PLACEMENT_3D ( 'NONE', #112, #111, #110 ) ;
#98 = ORIENTED_EDGE ( 'NONE', *, *, #82, .T. ) ;
#99 = ADVANCED_FACE ( 'NONE', ( #206 ), #239, .F. ) ;
#100 = EDGE_LOOP ( 'NONE', ( #101, #103, #98, #96 ) ) ;
#101 = ORIENTED_EDGE ( 'NONE', *, *, #72, .F. ) ;
#102 = ORIENTED_EDGE ( 'NONE', *, *, #55, .T. ) ;
#103 = ORIENTED_EDGE ( 'NONE', *, *, #87, .F. ) ;
#104 = AXIS2_PLACEMENT_3D ( 'NONE', #26, #25, #24 ) ;
#105 = DIRECTION ( 'NONE',  ( 0.0000000000000000000, 0.0000000000000000000, 1.000000000000000000 ) ) ;
#106 = VECTOR ( 'NONE', #105, 1000.000000000000000 ) ;
#107 = CARTESIAN_POINT ( 'NONE',  ( 3.000000000000000400, 0.0000000000000000000, -100.0000000000000700 ) ) ;
#108 = CARTESIAN_POINT ( 'NONE',  ( 2.000000000000000000, 0.0000000000000000000, 0.0000000000000000000 ) ) ;
#109 = FACE_BOUND ( 'NONE', #67, .T. ) ;
#110 = DIRECTION ( 'NONE',  ( 1.000000000000000000, 0.0000000000000000000, 0.0000000000000000000 ) ) ;
#111 = DIRECTION ( 'NONE',  ( 0.0000000000000000000, 0.0000000000000000000, 1.000000000000000000 ) ) ;
#112 = CARTESIAN_POINT ( 'NONE',  ( 0.0000000000000000000, 0.0000000000000000000, 0.0000000000000000000 ) ) ;
#113 = CARTESIAN_POINT ( 'NONE',  ( 3.000000000000000400, 0.0000000000000000000, -100.0000000000000700 ) ) ;
#114 = AXIS2_PLACEMENT_3D ( 'NONE', #30, #29, #28 ) ;
#115 = CIRCLE ( 'NONE', #97, 3.000000000000000400 ) ;
#116 = DIRECTION ( 'NONE',  ( 1.000000000000000000, 0.0000000000000000000, 0.0000000000000000000 ) ) ;
#117 = DIRECTION ( 'NONE',  ( 0.0000000000000000000, 0.0000000000000000000, 1.000000000000000000 ) ) ;
#118 = CARTESIAN_POINT ( 'NONE',  ( 0.0000000000000000000, 0.0000000000000000000, 0.0000000000000000000 ) ) ;
#119 = AXIS2_PLACEMENT_3D ( 'NONE', #118, #117, #116 ) ;
#120 = CIRCLE ( 'NONE', #119, 3.000000000000000400 ) ;
#121 = PLANE ( 'NONE',  #114 ) ;
#122 = CARTESIAN_POINT ( 'NONE',  ( -2.000000000000000000, 2.449293598294706400E-016, -100.0000000000000700 ) ) ;
#123 = ORIENTED_EDGE ( 'NONE', *, *, #73, .T. ) ;
#124 = ADVANCED_FACE ( 'NONE', ( #135 ), #133, .T. ) ;
#125 = EDGE_LOOP ( 'NONE', ( #127, #91 ) ) ;
#126 = ORIENTED_EDGE ( 'NONE', *, *, #131, .F. ) ;
#127 = ORIENTED_EDGE ( 'NONE', *, *, #92, .F. ) ;
#128 = ORIENTED_EDGE ( 'NONE', *, *, #58, .T. ) ;
#129 = EDGE_LOOP ( 'NONE', ( #64, #102 ) ) ;
#130 = ORIENTED_EDGE ( 'NONE', *, *, #84, .T. ) ;
#131 = EDGE_CURVE ( 'NONE', #93, #94, #137, .T. ) ;
#132 = ORIENTED_EDGE ( 'NONE', *, *, #53, .F. ) ;
#133 = CYLINDRICAL_SURFACE ( 'NONE', #153, 3.000000000000000400 ) ;
#134 = CARTESIAN_POINT ( 'NONE',  ( 0.0000000000000000000, 0.0000000000000000000, -100.0000000000000700 ) ) ;
#135 = FACE_OUTER_BOUND ( 'NONE', #81, .T. ) ;
#136 = DIRECTION ( 'NONE',  ( 0.0000000000000000000, 0.0000000000000000000, 1.000000000000000000 ) ) ;
#137 = LINE ( 'NONE', #195, #194 ) ;
#138 = DIRECTION ( 'NONE',  ( 0.0000000000000000000, 0.0000000000000000000, 1.000000000000000000 ) ) ;
#139 =( GEOMETRIC_REPRESENTATION_CONTEXT ( 3 ) GLOBAL_UNCERTAINTY_ASSIGNED_CONTEXT ( ( #155 ) ) GLOBAL_UNIT_ASSIGNED_CONTEXT ( ( #232, #157, #156 ) ) REPRESENTATION_CONTEXT ( 'NONE', 'WORKASPACE' ) );
#140 = FILL_AREA_STYLE_COLOUR ( '', #141 ) ;
#141 = COLOUR_RGB ( '',0.7843137254901960700, 0.7843137254901960700, 0.7843137254901960700 ) ;
#142 = DIRECTION ( 'NONE',  ( 1.000000000000000000, 0.0000000000000000000, 0.0000000000000000000 ) ) ;
#143 = DIRECTION ( 'NONE',  ( 0.0000000000000000000, 0.0000000000000000000, 1.000000000000000000 ) ) ;
#144 = CARTESIAN_POINT ( 'NONE',  ( 0.0000000000000000000, 0.0000000000000000000, 0.0000000000000000000 ) ) ;
#145 = AXIS2_PLACEMENT_3D ( 'NONE', #144, #143, #142 ) ;
#146 = ADVANCED_BREP_SHAPE_REPRESENTATION ( '', ( #95, #145 ), #147 ) ;
#147 =( GEOMETRIC_REPRESENTATION_CONTEXT ( 3 ) GLOBAL_UNCERTAINTY_ASSIGNED_CONTEXT ( ( #200 ) ) GLOBAL_UNIT_ASSIGNED_CONTEXT ( ( #196, #202, #201 ) ) REPRESENTATION_CONTEXT ( 'NONE', 'WORKASPACE' ) );
#148 = PRESENTATION_STYLE_ASSIGNMENT (( #149 ) ) ;
#149 = SURFACE_STYLE_USAGE ( .BOTH. , #150 ) ;
#150 = SURFACE_SIDE_STYLE ('',( #151 ) ) ;
#151 = SURFACE_STYLE_FILL_AREA ( #152 ) ;
#152 = FILL_AREA_STYLE ('',( #209 ) ) ;
#153 = AXIS2_PLACEMENT_3D ( 'NONE', #134, #136, #197 ) ;
#154 = AXIS2_PLACEMENT_3D ( 'NONE', #213, #138, #183 ) ;
#155 = UNCERTAINTY_MEASURE_WITH_UNIT (LENGTH_MEASURE( 1.000000000000000100E-005 ), #232, 'distance_accuracy_value', 'NONE');
#156 =( NAMED_UNIT ( * ) SI_UNIT ( $, .STERADIAN. ) SOLID_ANGLE_UNIT ( ) );
#157 =( NAMED_UNIT ( * ) PLANE_ANGLE_UNIT ( ) SI_UNIT ( $, .RADIAN. ) );
#158 = SHAPE_DEFINITION_REPRESENTATION ( #175, #227 ) ;
#159 = APPLICATION_PROTOCOL_DEFINITION ( 'draft international standard', 'automotive_design', 1998, #160 ) ;
#160 = APPLICATION_CONTEXT ( 'automotive_design' ) ;
#161 = PRODUCT ( 'TH0604N-20.step', 'TH0604N-20.step', '', ( #162 ) ) ;
#162 = PRODUCT_CONTEXT ( 'NONE', #164, 'mechanical' ) ;
#163 = APPLICATION_PROTOCOL_DEFINITION ( 'draft international standard', 'automotive_design', 1998, #164 ) ;
#164 = APPLICATION_CONTEXT ( 'automotive_design' ) ;
#165 = ITEM_DEFINED_TRANSFORMATION ( 'NONE', 'NONE', #222,  #145 ) ;
#166 = APPLICATION_CONTEXT ( 'automotive_design' ) ;
#167 =( NAMED_UNIT ( * ) PLANE_ANGLE_UNIT ( ) SI_UNIT ( $, .RADIAN. ) );
#168 =( LENGTH_UNIT ( ) NAMED_UNIT ( * ) SI_UNIT ( .MILLI., .METRE. ) );
#169 = MECHANICAL_DESIGN_GEOMETRIC_PRESENTATION_REPRESENTATION (  '', ( #171 ), #188 ) ;
#170 = PRESENTATION_LAYER_ASSIGNMENT (  '', '', ( #171 ) ) ;
#171 = STYLED_ITEM ( 'NONE', ( #172 ), #146 ) ;
#172 = PRESENTATION_STYLE_ASSIGNMENT (( #173 ) ) ;
#173 = SURFACE_STYLE_USAGE ( .BOTH. , #174 ) ;
#174 = SURFACE_SIDE_STYLE ('',( #191 ) ) ;
#175 = PRODUCT_DEFINITION_SHAPE ( 'NONE', 'NONE',  #178 ) ;
#176 = PRODUCT_RELATED_PRODUCT_CATEGORY ( 'part', '', ( #161 ) ) ;
#177 = PRODUCT_DEFINITION_FORMATION_WITH_SPECIFIED_SOURCE ( 'ANY', '', #161, .NOT_KNOWN. ) ;
#178 = PRODUCT_DEFINITION ( 'UNKNOWN', '', #177, #179 ) ;
#179 = PRODUCT_DEFINITION_CONTEXT ( 'detailed design', #160, 'design' ) ;
#180 = DIRECTION ( 'NONE',  ( 0.0000000000000000000, 0.0000000000000000000, 1.000000000000000000 ) ) ;
#181 = CARTESIAN_POINT ( 'NONE',  ( 0.0000000000000000000, 0.0000000000000000000, 0.0000000000000000000 ) ) ;
#182 = AXIS2_PLACEMENT_3D ( 'NONE', #181, #180, #204 ) ;
#183 = DIRECTION ( 'NONE',  ( 1.000000000000000000, 0.0000000000000000000, 0.0000000000000000000 ) ) ;
#184 = SHAPE_REPRESENTATION_RELATIONSHIP ( 'NONE' , 'NONE' ,  #187, #146 ) ;
#185 = PRODUCT_CONTEXT ( 'NONE', #166, 'mechanical' ) ;
#186 = DIRECTION ( 'NONE',  ( 1.000000000000000000, 0.0000000000000000000, 0.0000000000000000000 ) ) ;
#187 = SHAPE_REPRESENTATION ( 'TH0604N-20.step_TH Tubing_0604N', ( #145 ), #147 ) ;
#188 =( GEOMETRIC_REPRESENTATION_CONTEXT ( 3 ) GLOBAL_UNCERTAINTY_ASSIGNED_CONTEXT ( ( #189 ) ) GLOBAL_UNIT_ASSIGNED_CONTEXT ( ( #168, #167, #190 ) ) REPRESENTATION_CONTEXT ( 'NONE', 'WORKASPACE' ) );
#189 = UNCERTAINTY_MEASURE_WITH_UNIT (LENGTH_MEASURE( 1.000000000000000100E-005 ), #168, 'distance_accuracy_value', 'NONE');
#190 =( NAMED_UNIT ( * ) SI_UNIT ( $, .STERADIAN. ) SOLID_ANGLE_UNIT ( ) );
#191 = SURFACE_STYLE_FILL_AREA ( #192 ) ;
#192 = FILL_AREA_STYLE ('',( #140 ) ) ;
#193 = DIRECTION ( 'NONE',  ( 0.0000000000000000000, 0.0000000000000000000, 1.000000000000000000 ) ) ;
#194 = VECTOR ( 'NONE', #193, 1000.000000000000000 ) ;
#195 = CARTESIAN_POINT ( 'NONE',  ( -3.000000000000000400, 3.673940397442060400E-016, -100.0000000000000700 ) ) ;
#196 =( LENGTH_UNIT ( ) NAMED_UNIT ( * ) SI_UNIT ( .MILLI., .METRE. ) );
#197 = DIRECTION ( 'NONE',  ( 1.000000000000000000, 0.0000000000000000000, 0.0000000000000000000 ) ) ;
#198 = AXIS2_PLACEMENT_3D ( 'NONE', #229, #228, #186 ) ;
#199 = DIRECTION ( 'NONE',  ( 1.000000000000000000, 0.0000000000000000000, -0.0000000000000000000 ) ) ;
#200 = UNCERTAINTY_MEASURE_WITH_UNIT (LENGTH_MEASURE( 1.000000000000000100E-005 ), #196, 'distance_accuracy_value', 'NONE');
#201 =( NAMED_UNIT ( * ) SI_UNIT ( $, .STERADIAN. ) SOLID_ANGLE_UNIT ( ) );
#202 =( NAMED_UNIT ( * ) PLANE_ANGLE_UNIT ( ) SI_UNIT ( $, .RADIAN. ) );
#203 = COLOUR_RGB ( '',0.7843137254901960700, 0.7843137254901960700, 0.7843137254901960700 ) ;
#204 = DIRECTION ( 'NONE',  ( 1.000000000000000000, 0.0000000000000000000, 0.0000000000000000000 ) ) ;
#205 = AXIS2_PLACEMENT_3D ( 'NONE', #208, #207, #199 ) ;
#206 = FACE_OUTER_BOUND ( 'NONE', #100, .T. ) ;
#207 = DIRECTION ( 'NONE',  ( 0.0000000000000000000, 0.0000000000000000000, 1.000000000000000000 ) ) ;
#208 = CARTESIAN_POINT ( 'NONE',  ( 0.0000000000000000000, 0.0000000000000000000, 0.0000000000000000000 ) ) ;
#209 = FILL_AREA_STYLE_COLOUR ( '', #203 ) ;
#210 = CARTESIAN_POINT ( 'NONE',  ( -3.000000000000000400, 3.673940397442060400E-016, 0.0000000000000000000 ) ) ;
#211 = FACE_BOUND ( 'NONE', #125, .T. ) ;
#212 = FACE_OUTER_BOUND ( 'NONE', #129, .T. ) ;
#213 = CARTESIAN_POINT ( 'NONE',  ( 0.0000000000000000000, 0.0000000000000000000, -100.0000000000000700 ) ) ;
#214 =( GEOMETRIC_REPRESENTATION_CONTEXT ( 3 ) GLOBAL_UNCERTAINTY_ASSIGNED_CONTEXT ( ( #215 ) ) GLOBAL_UNIT_ASSIGNED_CONTEXT ( ( #218, #217, #216 ) ) REPRESENTATION_CONTEXT ( 'NONE', 'WORKASPACE' ) );
#215 = UNCERTAINTY_MEASURE_WITH_UNIT (LENGTH_MEASURE( 1.000000000000000100E-005 ), #218, 'distance_accuracy_value', 'NONE');
#216 =( NAMED_UNIT ( * ) SI_UNIT ( $, .STERADIAN. ) SOLID_ANGLE_UNIT ( ) );
#217 =( NAMED_UNIT ( * ) PLANE_ANGLE_UNIT ( ) SI_UNIT ( $, .RADIAN. ) );
#218 =( LENGTH_UNIT ( ) NAMED_UNIT ( * ) SI_UNIT ( .MILLI., .METRE. ) );
#219 = DIRECTION ( 'NONE',  ( 1.000000000000000000, 0.0000000000000000000, 0.0000000000000000000 ) ) ;
#220 = DIRECTION ( 'NONE',  ( 0.0000000000000000000, 0.0000000000000000000, 1.000000000000000000 ) ) ;
#221 = CARTESIAN_POINT ( 'NONE',  ( 0.0000000000000000000, 0.0000000000000000000, 0.0000000000000000000 ) ) ;
#222 = AXIS2_PLACEMENT_3D ( 'NONE', #221, #220, #219 ) ;
#223 = DIRECTION ( 'NONE',  ( 1.000000000000000000, 0.0000000000000000000, 0.0000000000000000000 ) ) ;
#224 = DIRECTION ( 'NONE',  ( 0.0000000000000000000, 0.0000000000000000000, 1.000000000000000000 ) ) ;
#225 = CARTESIAN_POINT ( 'NONE',  ( 0.0000000000000000000, 0.0000000000000000000, 0.0000000000000000000 ) ) ;
#226 = AXIS2_PLACEMENT_3D ( 'NONE', #225, #224, #223 ) ;
#227 = SHAPE_REPRESENTATION ( 'TH0604N-20.step', ( #198, #222 ), #214 ) ;
#228 = DIRECTION ( 'NONE',  ( 0.0000000000000000000, 0.0000000000000000000, 1.000000000000000000 ) ) ;
#229 = CARTESIAN_POINT ( 'NONE',  ( 0.0000000000000000000, 0.0000000000000000000, 0.0000000000000000000 ) ) ;
#230 = PLANE ( 'NONE',  #205 ) ;
#231 = CARTESIAN_POINT ( 'NONE',  ( -3.000000000000000400, 3.673940397442060400E-016, -100.0000000000000700 ) ) ;
#232 =( LENGTH_UNIT ( ) NAMED_UNIT ( * ) SI_UNIT ( .MILLI., .METRE. ) );
#233 = MECHANICAL_DESIGN_GEOMETRIC_PRESENTATION_REPRESENTATION (  '', ( #235 ), #139 ) ;
#234 = PRESENTATION_LAYER_ASSIGNMENT (  '', '', ( #235 ) ) ;
#235 = STYLED_ITEM ( 'NONE', ( #148 ), #95 ) ;
#236 = CONTEXT_DEPENDENT_SHAPE_REPRESENTATION ( #248, #237 ) ;
#237 = PRODUCT_DEFINITION_SHAPE ( 'NONE', 'NONE',  #251 ) ;
#238 = CIRCLE ( 'NONE', #182, 2.000000000000000000 ) ;
#239 = CYLINDRICAL_SURFACE ( 'NONE', #154, 2.000000000000000000 ) ;
#240 = PRODUCT_DEFINITION_SHAPE ( 'NONE', 'NONE',  #244 ) ;
#241 = PRODUCT_RELATED_PRODUCT_CATEGORY ( 'part', '', ( #249 ) ) ;
#242 = PRODUCT_DEFINITION_FORMATION_WITH_SPECIFIED_SOURCE ( 'ANY', '', #249, .NOT_KNOWN. ) ;
#243 = SHAPE_DEFINITION_REPRESENTATION ( #240, #187 ) ;
#244 = PRODUCT_DEFINITION ( 'UNKNOWN', '', #242, #245 ) ;
#245 = PRODUCT_DEFINITION_CONTEXT ( 'detailed design', #247, 'design' ) ;
#246 = APPLICATION_PROTOCOL_DEFINITION ( 'draft international standard', 'automotive_design', 1998, #247 ) ;
#247 = APPLICATION_CONTEXT ( 'automotive_design' ) ;
#248 =( REPRESENTATION_RELATIONSHIP ('NONE','NONE', #227, #187 ) REPRESENTATION_RELATIONSHIP_WITH_TRANSFORMATION ( #165 )SHAPE_REPRESENTATION_RELATIONSHIP( ) );
#249 = PRODUCT ( 'TH0604N-20.step_TH Tubing_0604N', 'TH0604N-20.step_TH Tubing_0604N', '', ( #185 ) ) ;
#250 = APPLICATION_PROTOCOL_DEFINITION ( 'draft international standard', 'automotive_design', 1998, #166 ) ;
#251 = NEXT_ASSEMBLY_USAGE_OCCURRENCE ( 'NAUO1', ' ', ' ', #178, #244, $ ) ;
ENDSEC;
END-ISO-10303-21;
