ISO-10303-21;
HEADER;
FILE_DESCRIPTION (( 'STEP AP214' ),
    '1' );
FILE_NAME ('TSTS0600408220175922.step',
    '2008-04-09T02:00:23',
    ( 'SysAdmin' ),
    ( 'SolidWorks' ),
    'SwSTEP 2.0',
    'SolidWorks 2008',
    '' );
FILE_SCHEMA (( 'AUTOMOTIVE_DESIGN' ));
ENDSEC;

DATA;
#1 = ORIENTED_EDGE ( 'NONE', *, *, #192, .T. ) ;
#2 = VERTEX_POINT ( 'NONE', #24 ) ;
#3 = CYLINDRICAL_SURFACE ( 'NONE', #10, 2.000000000000000000 ) ;
#4 = ADVANCED_FACE ( 'NONE', ( #18 ), #3, .F. ) ;
#5 = ORIENTED_EDGE ( 'NONE', *, *, #200, .T. ) ;
#6 = ORIENTED_EDGE ( 'NONE', *, *, #200, .F. ) ;
#7 = ORIENTED_EDGE ( 'NONE', *, *, #8, .F. ) ;
#8 = EDGE_CURVE ( 'NONE', #233, #230, #39, .T. ) ;
#9 = CARTESIAN_POINT ( 'NONE',  ( 50.00000000000000000, 0.0000000000000000000, 0.0000000000000000000 ) ) ;
#10 = AXIS2_PLACEMENT_3D ( 'NONE', #9, #23, #22 ) ;
#11 =( LENGTH_UNIT ( ) NAMED_UNIT ( * ) SI_UNIT ( .MILLI., .METRE. ) );
#12 = ORIENTED_EDGE ( 'NONE', *, *, #232, .F. ) ;
#13 = EDGE_LOOP ( 'NONE', ( #14, #5 ) ) ;
#14 = ORIENTED_EDGE ( 'NONE', *, *, #195, .T. ) ;
#15 = ORIENTED_EDGE ( 'NONE', *, *, #19, .T. ) ;
#16 = MANIFOLD_SOLID_BREP ( 'NONE', #20 ) ;
#17 = VERTEX_POINT ( 'NONE', #69 ) ;
#18 = FACE_OUTER_BOUND ( 'NONE', #212, .T. ) ;
#19 = EDGE_CURVE ( 'NONE', #17, #2, #62, .T. ) ;
#20 = CLOSED_SHELL ( 'NONE', ( #4, #223, #236, #221, #201, #207 ) ) ;
#21 = MECHANICAL_DESIGN_GEOMETRIC_PRESENTATION_REPRESENTATION (  '', ( #28 ), #41 ) ;
#22 = DIRECTION ( 'NONE',  ( 0.0000000000000000000, 0.0000000000000000000, 1.000000000000000000 ) ) ;
#23 = DIRECTION ( 'NONE',  ( -1.000000000000000000, -0.0000000000000000000, -0.0000000000000000000 ) ) ;
#24 = CARTESIAN_POINT ( 'NONE',  ( 50.00000000000000000, 2.449293598294706400E-016, -2.000000000000000000 ) ) ;
#25 =( LENGTH_UNIT ( ) NAMED_UNIT ( * ) SI_UNIT ( .MILLI., .METRE. ) );
#26 =( NAMED_UNIT ( * ) PLANE_ANGLE_UNIT ( ) SI_UNIT ( $, .RADIAN. ) );
#27 = PRESENTATION_LAYER_ASSIGNMENT (  '', '', ( #28 ) ) ;
#28 = STYLED_ITEM ( 'NONE', ( #29 ), #16 ) ;
#29 = PRESENTATION_STYLE_ASSIGNMENT (( #30 ) ) ;
#30 = SURFACE_STYLE_USAGE ( .BOTH. , #31 ) ;
#31 = SURFACE_SIDE_STYLE ('',( #32 ) ) ;
#32 = SURFACE_STYLE_FILL_AREA ( #33 ) ;
#33 = FILL_AREA_STYLE ('',( #34 ) ) ;
#34 = FILL_AREA_STYLE_COLOUR ( '', #40 ) ;
#35 = DIRECTION ( 'NONE',  ( 0.0000000000000000000, 0.0000000000000000000, -1.000000000000000000 ) ) ;
#36 = DIRECTION ( 'NONE',  ( 1.000000000000000000, 0.0000000000000000000, 0.0000000000000000000 ) ) ;
#37 = CARTESIAN_POINT ( 'NONE',  ( -50.00000000000000000, 0.0000000000000000000, 0.0000000000000000000 ) ) ;
#38 = AXIS2_PLACEMENT_3D ( 'NONE', #37, #36, #35 ) ;
#39 = CIRCLE ( 'NONE', #38, 3.000000000000000400 ) ;
#40 = COLOUR_RGB ( '',1.000000000000000000, 1.000000000000000000, 1.000000000000000000 ) ;
#41 =( GEOMETRIC_REPRESENTATION_CONTEXT ( 3 ) GLOBAL_UNCERTAINTY_ASSIGNED_CONTEXT ( ( #64 ) ) GLOBAL_UNIT_ASSIGNED_CONTEXT ( ( #11, #26, #68 ) ) REPRESENTATION_CONTEXT ( 'NONE', 'WORKASPACE' ) );
#42 = DIRECTION ( 'NONE',  ( -1.000000000000000000, -0.0000000000000000000, -0.0000000000000000000 ) ) ;
#43 = VECTOR ( 'NONE', #42, 1000.000000000000000 ) ;
#44 = CARTESIAN_POINT ( 'NONE',  ( 50.00000000000000000, 0.0000000000000000000, 2.000000000000000000 ) ) ;
#45 = LINE ( 'NONE', #44, #43 ) ;
#46 = DIRECTION ( 'NONE',  ( 0.0000000000000000000, 0.0000000000000000000, -1.000000000000000000 ) ) ;
#47 = DIRECTION ( 'NONE',  ( 0.0000000000000000000, 0.0000000000000000000, -1.000000000000000000 ) ) ;
#48 = DIRECTION ( 'NONE',  ( 1.000000000000000000, 0.0000000000000000000, 0.0000000000000000000 ) ) ;
#49 = CARTESIAN_POINT ( 'NONE',  ( -50.00000000000000000, 0.0000000000000000000, 0.0000000000000000000 ) ) ;
#50 = AXIS2_PLACEMENT_3D ( 'NONE', #49, #48, #47 ) ;
#51 = FACE_OUTER_BOUND ( 'NONE', #202, .T. ) ;
#52 = DIRECTION ( 'NONE',  ( -1.000000000000000000, -0.0000000000000000000, -0.0000000000000000000 ) ) ;
#53 = VECTOR ( 'NONE', #52, 1000.000000000000000 ) ;
#54 = DIRECTION ( 'NONE',  ( 1.000000000000000000, 0.0000000000000000000, 0.0000000000000000000 ) ) ;
#55 = CARTESIAN_POINT ( 'NONE',  ( 50.00000000000000000, 0.0000000000000000000, 0.0000000000000000000 ) ) ;
#56 = AXIS2_PLACEMENT_3D ( 'NONE', #55, #54, #66 ) ;
#57 = CARTESIAN_POINT ( 'NONE',  ( -50.00000000000000000, 2.449293598294706400E-016, -2.000000000000000000 ) ) ;
#58 = DIRECTION ( 'NONE',  ( 0.0000000000000000000, 0.0000000000000000000, -1.000000000000000000 ) ) ;
#59 = DIRECTION ( 'NONE',  ( 1.000000000000000000, 0.0000000000000000000, 0.0000000000000000000 ) ) ;
#60 = CARTESIAN_POINT ( 'NONE',  ( -50.00000000000000000, 0.0000000000000000000, 0.0000000000000000000 ) ) ;
#61 = AXIS2_PLACEMENT_3D ( 'NONE', #60, #59, #58 ) ;
#62 = CIRCLE ( 'NONE', #56, 2.000000000000000000 ) ;
#63 = LINE ( 'NONE', #65, #53 ) ;
#64 = UNCERTAINTY_MEASURE_WITH_UNIT (LENGTH_MEASURE( 1.000000000000000100E-005 ), #11, 'distance_accuracy_value', 'NONE');
#65 = CARTESIAN_POINT ( 'NONE',  ( 50.00000000000000000, 2.449293598294706400E-016, -2.000000000000000000 ) ) ;
#66 = DIRECTION ( 'NONE',  ( 0.0000000000000000000, 0.0000000000000000000, -1.000000000000000000 ) ) ;
#67 = CIRCLE ( 'NONE', #61, 2.000000000000000000 ) ;
#68 =( NAMED_UNIT ( * ) SI_UNIT ( $, .STERADIAN. ) SOLID_ANGLE_UNIT ( ) );
#69 = CARTESIAN_POINT ( 'NONE',  ( 50.00000000000000000, 0.0000000000000000000, 2.000000000000000000 ) ) ;
#70 = CIRCLE ( 'NONE', #50, 2.000000000000000000 ) ;
#71 = CARTESIAN_POINT ( 'NONE',  ( -50.00000000000000000, 0.0000000000000000000, 2.000000000000000000 ) ) ;
#72 = CARTESIAN_POINT ( 'NONE',  ( 50.00000000000000000, 0.0000000000000000000, 0.0000000000000000000 ) ) ;
#73 = CIRCLE ( 'NONE', #79, 3.000000000000000400 ) ;
#74 = DIRECTION ( 'NONE',  ( 0.0000000000000000000, 0.0000000000000000000, 1.000000000000000000 ) ) ;
#75 = CYLINDRICAL_SURFACE ( 'NONE', #83, 3.000000000000000400 ) ;
#76 = FACE_OUTER_BOUND ( 'NONE', #208, .T. ) ;
#77 = DIRECTION ( 'NONE',  ( 1.000000000000000000, 0.0000000000000000000, 0.0000000000000000000 ) ) ;
#78 = CARTESIAN_POINT ( 'NONE',  ( 50.00000000000000000, 0.0000000000000000000, 0.0000000000000000000 ) ) ;
#79 = AXIS2_PLACEMENT_3D ( 'NONE', #78, #77, #46 ) ;
#80 =( NAMED_UNIT ( * ) PLANE_ANGLE_UNIT ( ) SI_UNIT ( $, .RADIAN. ) );
#81 = PLANE ( 'NONE',  #108 ) ;
#82 = CYLINDRICAL_SURFACE ( 'NONE', #88, 2.000000000000000000 ) ;
#83 = AXIS2_PLACEMENT_3D ( 'NONE', #72, #85, #84 ) ;
#84 = DIRECTION ( 'NONE',  ( 0.0000000000000000000, 0.0000000000000000000, 1.000000000000000000 ) ) ;
#85 = DIRECTION ( 'NONE',  ( -1.000000000000000000, -0.0000000000000000000, -0.0000000000000000000 ) ) ;
#86 = DIRECTION ( 'NONE',  ( -1.000000000000000000, -0.0000000000000000000, -0.0000000000000000000 ) ) ;
#87 = CARTESIAN_POINT ( 'NONE',  ( 50.00000000000000000, 0.0000000000000000000, 0.0000000000000000000 ) ) ;
#88 = AXIS2_PLACEMENT_3D ( 'NONE', #87, #86, #74 ) ;
#89 = DIRECTION ( 'NONE',  ( 0.0000000000000000000, 0.0000000000000000000, -1.000000000000000000 ) ) ;
#90 = FACE_BOUND ( 'NONE', #13, .T. ) ;
#91 = FACE_OUTER_BOUND ( 'NONE', #222, .T. ) ;
#92 = DIRECTION ( 'NONE',  ( 1.000000000000000000, 0.0000000000000000000, 0.0000000000000000000 ) ) ;
#93 = CIRCLE ( 'NONE', #94, 2.000000000000000000 ) ;
#94 = AXIS2_PLACEMENT_3D ( 'NONE', #95, #92, #89 ) ;
#95 = CARTESIAN_POINT ( 'NONE',  ( 50.00000000000000000, 0.0000000000000000000, 0.0000000000000000000 ) ) ;
#96 = DIRECTION ( 'NONE',  ( 0.0000000000000000000, 0.0000000000000000000, -1.000000000000000000 ) ) ;
#97 = DIRECTION ( 'NONE',  ( 1.000000000000000000, 0.0000000000000000000, 0.0000000000000000000 ) ) ;
#98 = CARTESIAN_POINT ( 'NONE',  ( -50.00000000000000000, 0.0000000000000000000, 0.0000000000000000000 ) ) ;
#99 = AXIS2_PLACEMENT_3D ( 'NONE', #98, #97, #96 ) ;
#100 = CIRCLE ( 'NONE', #99, 3.000000000000000400 ) ;
#101 = FACE_OUTER_BOUND ( 'NONE', #199, .T. ) ;
#102 = DIRECTION ( 'NONE',  ( -1.000000000000000000, -0.0000000000000000000, -0.0000000000000000000 ) ) ;
#103 = CYLINDRICAL_SURFACE ( 'NONE', #153, 3.000000000000000400 ) ;
#104 = CARTESIAN_POINT ( 'NONE',  ( 50.00000000000000000, 3.673940397442060400E-016, -3.000000000000000400 ) ) ;
#105 = DIRECTION ( 'NONE',  ( 0.0000000000000000000, 0.0000000000000000000, -1.000000000000000000 ) ) ;
#106 = AXIS2_PLACEMENT_3D ( 'NONE', #144, #146, #105 ) ;
#107 = CARTESIAN_POINT ( 'NONE',  ( -50.00000000000000000, 0.0000000000000000000, 0.0000000000000000000 ) ) ;
#108 = AXIS2_PLACEMENT_3D ( 'NONE', #107, #154, #131 ) ;
#109 = DIRECTION ( 'NONE',  ( 1.000000000000000000, 0.0000000000000000000, 0.0000000000000000000 ) ) ;
#110 = DIRECTION ( 'NONE',  ( 0.0000000000000000000, 0.0000000000000000000, 1.000000000000000000 ) ) ;
#111 = CARTESIAN_POINT ( 'NONE',  ( 0.0000000000000000000, 0.0000000000000000000, 0.0000000000000000000 ) ) ;
#112 = AXIS2_PLACEMENT_3D ( 'NONE', #111, #110, #109 ) ;
#113 = DIRECTION ( 'NONE',  ( 1.000000000000000000, 0.0000000000000000000, 0.0000000000000000000 ) ) ;
#114 = DIRECTION ( 'NONE',  ( 0.0000000000000000000, 0.0000000000000000000, 1.000000000000000000 ) ) ;
#115 = CARTESIAN_POINT ( 'NONE',  ( 0.0000000000000000000, 0.0000000000000000000, 0.0000000000000000000 ) ) ;
#116 = AXIS2_PLACEMENT_3D ( 'NONE', #115, #114, #113 ) ;
#117 = SHAPE_REPRESENTATION ( 'TSTS0600408220175922', ( #160, #112 ), #162 ) ;
#118 = SHAPE_REPRESENTATION_RELATIONSHIP ( 'NONE' , 'NONE' ,  #119, #137 ) ;
#119 = SHAPE_REPRESENTATION ( 'TS0604W-20.step_TS3075 Tube_0604W', ( #123 ), #138 ) ;
#120 = DIRECTION ( 'NONE',  ( 1.000000000000000000, 0.0000000000000000000, 0.0000000000000000000 ) ) ;
#121 = DIRECTION ( 'NONE',  ( 0.0000000000000000000, 0.0000000000000000000, 1.000000000000000000 ) ) ;
#122 = CARTESIAN_POINT ( 'NONE',  ( 0.0000000000000000000, 0.0000000000000000000, 0.0000000000000000000 ) ) ;
#123 = AXIS2_PLACEMENT_3D ( 'NONE', #122, #121, #120 ) ;
#124 = FACE_OUTER_BOUND ( 'NONE', #213, .T. ) ;
#125 = DIRECTION ( 'NONE',  ( -1.000000000000000000, -0.0000000000000000000, -0.0000000000000000000 ) ) ;
#126 = VECTOR ( 'NONE', #125, 1000.000000000000000 ) ;
#127 = CARTESIAN_POINT ( 'NONE',  ( 50.00000000000000000, 0.0000000000000000000, 3.000000000000000400 ) ) ;
#128 = LINE ( 'NONE', #127, #126 ) ;
#129 = PLANE ( 'NONE',  #135 ) ;
#130 = CARTESIAN_POINT ( 'NONE',  ( -50.00000000000000000, 0.0000000000000000000, 3.000000000000000400 ) ) ;
#131 = DIRECTION ( 'NONE',  ( 0.0000000000000000000, 0.0000000000000000000, -1.000000000000000000 ) ) ;
#132 = DIRECTION ( 'NONE',  ( 0.0000000000000000000, 0.0000000000000000000, -1.000000000000000000 ) ) ;
#133 = DIRECTION ( 'NONE',  ( 1.000000000000000000, 0.0000000000000000000, 0.0000000000000000000 ) ) ;
#134 = CARTESIAN_POINT ( 'NONE',  ( 50.00000000000000000, 0.0000000000000000000, 0.0000000000000000000 ) ) ;
#135 = AXIS2_PLACEMENT_3D ( 'NONE', #134, #133, #132 ) ;
#136 = FACE_BOUND ( 'NONE', #217, .T. ) ;
#137 = ADVANCED_BREP_SHAPE_REPRESENTATION ( '', ( #16, #123 ), #138 ) ;
#138 =( GEOMETRIC_REPRESENTATION_CONTEXT ( 3 ) GLOBAL_UNCERTAINTY_ASSIGNED_CONTEXT ( ( #139 ) ) GLOBAL_UNIT_ASSIGNED_CONTEXT ( ( #142, #141, #140 ) ) REPRESENTATION_CONTEXT ( 'NONE', 'WORKASPACE' ) );
#139 = UNCERTAINTY_MEASURE_WITH_UNIT (LENGTH_MEASURE( 1.000000000000000100E-005 ), #142, 'distance_accuracy_value', 'NONE');
#140 =( NAMED_UNIT ( * ) SI_UNIT ( $, .STERADIAN. ) SOLID_ANGLE_UNIT ( ) );
#141 =( NAMED_UNIT ( * ) PLANE_ANGLE_UNIT ( ) SI_UNIT ( $, .RADIAN. ) );
#142 =( LENGTH_UNIT ( ) NAMED_UNIT ( * ) SI_UNIT ( .MILLI., .METRE. ) );
#143 = CIRCLE ( 'NONE', #106, 3.000000000000000400 ) ;
#144 = CARTESIAN_POINT ( 'NONE',  ( 50.00000000000000000, 0.0000000000000000000, 0.0000000000000000000 ) ) ;
#145 = CARTESIAN_POINT ( 'NONE',  ( 50.00000000000000000, 0.0000000000000000000, 3.000000000000000400 ) ) ;
#146 = DIRECTION ( 'NONE',  ( 1.000000000000000000, 0.0000000000000000000, 0.0000000000000000000 ) ) ;
#147 = DIRECTION ( 'NONE',  ( -1.000000000000000000, -0.0000000000000000000, -0.0000000000000000000 ) ) ;
#148 = VECTOR ( 'NONE', #147, 1000.000000000000000 ) ;
#149 = CARTESIAN_POINT ( 'NONE',  ( 50.00000000000000000, 3.673940397442060400E-016, -3.000000000000000400 ) ) ;
#150 = LINE ( 'NONE', #149, #148 ) ;
#151 = CARTESIAN_POINT ( 'NONE',  ( -50.00000000000000000, 3.673940397442060400E-016, -3.000000000000000400 ) ) ;
#152 = CARTESIAN_POINT ( 'NONE',  ( 50.00000000000000000, 0.0000000000000000000, 0.0000000000000000000 ) ) ;
#153 = AXIS2_PLACEMENT_3D ( 'NONE', #152, #102, #155 ) ;
#154 = DIRECTION ( 'NONE',  ( 1.000000000000000000, 0.0000000000000000000, 0.0000000000000000000 ) ) ;
#155 = DIRECTION ( 'NONE',  ( 0.0000000000000000000, 0.0000000000000000000, 1.000000000000000000 ) ) ;
#156 = UNCERTAINTY_MEASURE_WITH_UNIT (LENGTH_MEASURE( 1.000000000000000100E-005 ), #25, 'distance_accuracy_value', 'NONE');
#157 =( NAMED_UNIT ( * ) SI_UNIT ( $, .STERADIAN. ) SOLID_ANGLE_UNIT ( ) );
#158 = DIRECTION ( 'NONE',  ( 0.0000000000000000000, 0.0000000000000000000, 1.000000000000000000 ) ) ;
#159 = DIRECTION ( 'NONE',  ( 1.000000000000000000, 0.0000000000000000000, 0.0000000000000000000 ) ) ;
#160 = AXIS2_PLACEMENT_3D ( 'NONE', #161, #158, #159 ) ;
#161 = CARTESIAN_POINT ( 'NONE',  ( 0.0000000000000000000, 0.0000000000000000000, 0.0000000000000000000 ) ) ;
#162 =( GEOMETRIC_REPRESENTATION_CONTEXT ( 3 ) GLOBAL_UNCERTAINTY_ASSIGNED_CONTEXT ( ( #156 ) ) GLOBAL_UNIT_ASSIGNED_CONTEXT ( ( #25, #80, #157 ) ) REPRESENTATION_CONTEXT ( 'NONE', 'WORKASPACE' ) );
#163 = SHAPE_DEFINITION_REPRESENTATION ( #182, #119 ) ;
#164 = PRODUCT_RELATED_PRODUCT_CATEGORY ( 'part', '', ( #171 ) ) ;
#165 = PRODUCT_DEFINITION_FORMATION_WITH_SPECIFIED_SOURCE ( 'ANY', '', #171, .NOT_KNOWN. ) ;
#166 = PRODUCT_DEFINITION ( 'UNKNOWN', '', #165, #167 ) ;
#167 = PRODUCT_DEFINITION_CONTEXT ( 'detailed design', #169, 'design' ) ;
#168 = APPLICATION_PROTOCOL_DEFINITION ( 'draft international standard', 'automotive_design', 1998, #169 ) ;
#169 = APPLICATION_CONTEXT ( 'automotive_design' ) ;
#170 = APPLICATION_CONTEXT ( 'automotive_design' ) ;
#171 = PRODUCT ( 'TSTS0600408220175922', 'TSTS0600408220175922', '', ( #172 ) ) ;
#172 = PRODUCT_CONTEXT ( 'NONE', #181, 'mechanical' ) ;
#173 = APPLICATION_PROTOCOL_DEFINITION ( 'draft international standard', 'automotive_design', 1998, #181 ) ;
#174 = PRODUCT_DEFINITION_SHAPE ( 'NONE', 'NONE',  #176 ) ;
#175 = ITEM_DEFINED_TRANSFORMATION ( 'NONE', 'NONE', #112,  #123 ) ;
#176 = NEXT_ASSEMBLY_USAGE_OCCURRENCE ( 'NAUO1', ' ', ' ', #166, #185, $ ) ;
#177 = APPLICATION_PROTOCOL_DEFINITION ( 'draft international standard', 'automotive_design', 1998, #170 ) ;
#178 = CONTEXT_DEPENDENT_SHAPE_REPRESENTATION ( #180, #174 ) ;
#179 = SHAPE_DEFINITION_REPRESENTATION ( #191, #117 ) ;
#180 =( REPRESENTATION_RELATIONSHIP ('NONE','NONE', #117, #119 ) REPRESENTATION_RELATIONSHIP_WITH_TRANSFORMATION ( #175 )SHAPE_REPRESENTATION_RELATIONSHIP( ) );
#181 = APPLICATION_CONTEXT ( 'automotive_design' ) ;
#182 = PRODUCT_DEFINITION_SHAPE ( 'NONE', 'NONE',  #185 ) ;
#183 = PRODUCT_RELATED_PRODUCT_CATEGORY ( 'part', '', ( #189 ) ) ;
#184 = PRODUCT_DEFINITION_FORMATION_WITH_SPECIFIED_SOURCE ( 'ANY', '', #189, .NOT_KNOWN. ) ;
#185 = PRODUCT_DEFINITION ( 'UNKNOWN', '', #184, #186 ) ;
#186 = PRODUCT_DEFINITION_CONTEXT ( 'detailed design', #188, 'design' ) ;
#187 = APPLICATION_PROTOCOL_DEFINITION ( 'draft international standard', 'automotive_design', 1998, #188 ) ;
#188 = APPLICATION_CONTEXT ( 'automotive_design' ) ;
#189 = PRODUCT ( 'TS0604W-20.step_TS3075 Tube_0604W', 'TS0604W-20.step_TS3075 Tube_0604W', '', ( #190 ) ) ;
#190 = PRODUCT_CONTEXT ( 'NONE', #170, 'mechanical' ) ;
#191 = PRODUCT_DEFINITION_SHAPE ( 'NONE', 'NONE',  #166 ) ;
#192 = EDGE_CURVE ( 'NONE', #2, #193, #63, .T. ) ;
#193 = VERTEX_POINT ( 'NONE', #57 ) ;
#194 = ORIENTED_EDGE ( 'NONE', *, *, #195, .F. ) ;
#195 = EDGE_CURVE ( 'NONE', #196, #193, #67, .T. ) ;
#196 = VERTEX_POINT ( 'NONE', #71 ) ;
#197 = ORIENTED_EDGE ( 'NONE', *, *, #198, .F. ) ;
#198 = EDGE_CURVE ( 'NONE', #17, #196, #45, .T. ) ;
#199 = EDGE_LOOP ( 'NONE', ( #224, #228, #231, #234 ) ) ;
#200 = EDGE_CURVE ( 'NONE', #193, #196, #70, .T. ) ;
#201 = ADVANCED_FACE ( 'NONE', ( #51 ), #75, .T. ) ;
#202 = EDGE_LOOP ( 'NONE', ( #203, #204, #205, #206 ) ) ;
#203 = ORIENTED_EDGE ( 'NONE', *, *, #229, .F. ) ;
#204 = ORIENTED_EDGE ( 'NONE', *, *, #215, .F. ) ;
#205 = ORIENTED_EDGE ( 'NONE', *, *, #235, .T. ) ;
#206 = ORIENTED_EDGE ( 'NONE', *, *, #8, .T. ) ;
#207 = ADVANCED_FACE ( 'NONE', ( #76 ), #82, .F. ) ;
#208 = EDGE_LOOP ( 'NONE', ( #209, #210, #211, #6 ) ) ;
#209 = ORIENTED_EDGE ( 'NONE', *, *, #192, .F. ) ;
#210 = ORIENTED_EDGE ( 'NONE', *, *, #220, .T. ) ;
#211 = ORIENTED_EDGE ( 'NONE', *, *, #198, .T. ) ;
#212 = EDGE_LOOP ( 'NONE', ( #15, #1, #194, #197 ) ) ;
#213 = EDGE_LOOP ( 'NONE', ( #214, #216 ) ) ;
#214 = ORIENTED_EDGE ( 'NONE', *, *, #215, .T. ) ;
#215 = EDGE_CURVE ( 'NONE', #227, #226, #73, .T. ) ;
#216 = ORIENTED_EDGE ( 'NONE', *, *, #225, .T. ) ;
#217 = EDGE_LOOP ( 'NONE', ( #218, #219 ) ) ;
#218 = ORIENTED_EDGE ( 'NONE', *, *, #19, .F. ) ;
#219 = ORIENTED_EDGE ( 'NONE', *, *, #220, .F. ) ;
#220 = EDGE_CURVE ( 'NONE', #2, #17, #93, .T. ) ;
#221 = ADVANCED_FACE ( 'NONE', ( #91, #90 ), #81, .F. ) ;
#222 = EDGE_LOOP ( 'NONE', ( #7, #12 ) ) ;
#223 = ADVANCED_FACE ( 'NONE', ( #101 ), #103, .T. ) ;
#224 = ORIENTED_EDGE ( 'NONE', *, *, #225, .F. ) ;
#225 = EDGE_CURVE ( 'NONE', #226, #227, #143, .T. ) ;
#226 = VERTEX_POINT ( 'NONE', #104 ) ;
#227 = VERTEX_POINT ( 'NONE', #145 ) ;
#228 = ORIENTED_EDGE ( 'NONE', *, *, #229, .T. ) ;
#229 = EDGE_CURVE ( 'NONE', #226, #230, #150, .T. ) ;
#230 = VERTEX_POINT ( 'NONE', #151 ) ;
#231 = ORIENTED_EDGE ( 'NONE', *, *, #232, .T. ) ;
#232 = EDGE_CURVE ( 'NONE', #230, #233, #100, .T. ) ;
#233 = VERTEX_POINT ( 'NONE', #130 ) ;
#234 = ORIENTED_EDGE ( 'NONE', *, *, #235, .F. ) ;
#235 = EDGE_CURVE ( 'NONE', #227, #233, #128, .T. ) ;
#236 = ADVANCED_FACE ( 'NONE', ( #124, #136 ), #129, .T. ) ;
ENDSEC;
END-ISO-10303-21;
