ISO-10303-21;
HEADER;
FILE_DESCRIPTION (( 'STEP AP214' ),
    '1' );
FILE_NAME ('TS0806W-20.step.step',
    '2014-08-29T12:59:45',
    ( 'Windows User' ),
    ( '' ),
    'SwSTEP 2.0',
    'SolidWorks 2014',
    '' );
FILE_SCHEMA (( 'AUTOMOTIVE_DESIGN' ));
ENDSEC;

DATA;
#1 = VERTEX_POINT ( 'NONE', #130 ) ;
#2 = SURFACE_SIDE_STYLE ('',( #194 ) ) ;
#3 = DIRECTION ( 'NONE',  ( 0.0000000000000000000, 0.0000000000000000000, 1.000000000000000000 ) ) ;
#4 = CIRCLE ( 'NONE', #53, 4.000000000000000000 ) ;
#5 = DIRECTION ( 'NONE',  ( 1.000000000000000000, 0.0000000000000000000, 0.0000000000000000000 ) ) ;
#6 = DIRECTION ( 'NONE',  ( 0.0000000000000000000, 0.0000000000000000000, 1.000000000000000000 ) ) ;
#7 = CARTESIAN_POINT ( 'NONE',  ( 50.00000000000000000, 3.673940397442060400E-016, -3.000000000000000400 ) ) ;
#8 = APPLICATION_CONTEXT ( 'automotive_design' ) ;
#9 = EDGE_CURVE ( 'NONE', #185, #190, #243, .T. ) ;
#10 = CARTESIAN_POINT ( 'NONE',  ( -50.00000000000000000, 3.673940397442060400E-016, -3.000000000000000400 ) ) ;
#11 = CARTESIAN_POINT ( 'NONE',  ( 0.0000000000000000000, 0.0000000000000000000, 0.0000000000000000000 ) ) ;
#12 = CIRCLE ( 'NONE', #241, 4.000000000000000000 ) ;
#13 =( GEOMETRIC_REPRESENTATION_CONTEXT ( 3 ) GLOBAL_UNCERTAINTY_ASSIGNED_CONTEXT ( ( #46 ) ) GLOBAL_UNIT_ASSIGNED_CONTEXT ( ( #69, #152, #189 ) ) REPRESENTATION_CONTEXT ( 'NONE', 'WORKASPACE' ) );
#14 = ORIENTED_EDGE ( 'NONE', *, *, #239, .F. ) ;
#15 = ORIENTED_EDGE ( 'NONE', *, *, #249, .F. ) ;
#16 = CARTESIAN_POINT ( 'NONE',  ( 50.00000000000000000, 0.0000000000000000000, 0.0000000000000000000 ) ) ;
#17 = ADVANCED_FACE ( 'NONE', ( #24, #79 ), #84, .F. ) ;
#18 = CARTESIAN_POINT ( 'NONE',  ( 50.00000000000000000, 0.0000000000000000000, 0.0000000000000000000 ) ) ;
#19 = DIRECTION ( 'NONE',  ( 0.0000000000000000000, 0.0000000000000000000, -1.000000000000000000 ) ) ;
#20 =( LENGTH_UNIT ( ) NAMED_UNIT ( * ) SI_UNIT ( .MILLI., .METRE. ) );
#21 = DIRECTION ( 'NONE',  ( -1.000000000000000000, -0.0000000000000000000, -0.0000000000000000000 ) ) ;
#22 = CYLINDRICAL_SURFACE ( 'NONE', #34, 3.000000000000000400 ) ;
#23 = PRODUCT_DEFINITION_CONTEXT ( 'detailed design', #91, 'design' ) ;
#24 = FACE_OUTER_BOUND ( 'NONE', #48, .T. ) ;
#25 =( GEOMETRIC_REPRESENTATION_CONTEXT ( 3 ) GLOBAL_UNCERTAINTY_ASSIGNED_CONTEXT ( ( #238 ) ) GLOBAL_UNIT_ASSIGNED_CONTEXT ( ( #180, #214, #78 ) ) REPRESENTATION_CONTEXT ( 'NONE', 'WORKASPACE' ) );
#26 = PLANE ( 'NONE',  #223 ) ;
#27 = AXIS2_PLACEMENT_3D ( 'NONE', #144, #122, #172 ) ;
#28 = CARTESIAN_POINT ( 'NONE',  ( 50.00000000000000000, 0.0000000000000000000, 3.000000000000000400 ) ) ;
#29 = CYLINDRICAL_SURFACE ( 'NONE', #224, 3.000000000000000400 ) ;
#30 = APPLICATION_CONTEXT ( 'automotive_design' ) ;
#31 = VERTEX_POINT ( 'NONE', #63 ) ;
#32 = AXIS2_PLACEMENT_3D ( 'NONE', #244, #116, #203 ) ;
#33 = EDGE_LOOP ( 'NONE', ( #210, #209 ) ) ;
#34 = AXIS2_PLACEMENT_3D ( 'NONE', #173, #146, #105 ) ;
#35 = EDGE_LOOP ( 'NONE', ( #137, #75, #186, #142 ) ) ;
#36 = CARTESIAN_POINT ( 'NONE',  ( 50.00000000000000000, 0.0000000000000000000, 4.000000000000000000 ) ) ;
#37 = AXIS2_PLACEMENT_3D ( 'NONE', #221, #5, #61 ) ;
#38 = CARTESIAN_POINT ( 'NONE',  ( 50.00000000000000000, 0.0000000000000000000, 0.0000000000000000000 ) ) ;
#39 = STYLED_ITEM ( 'NONE', ( #60 ), #50 ) ;
#40 = DIRECTION ( 'NONE',  ( 1.000000000000000000, 0.0000000000000000000, 0.0000000000000000000 ) ) ;
#41 = AXIS2_PLACEMENT_3D ( 'NONE', #18, #97, #3 ) ;
#42 = SURFACE_STYLE_FILL_AREA ( #82 ) ;
#43 = CARTESIAN_POINT ( 'NONE',  ( -50.00000000000000000, 0.0000000000000000000, 3.000000000000000400 ) ) ;
#44 = PRESENTATION_LAYER_ASSIGNMENT (  '', '', ( #39 ) ) ;
#45 = SHAPE_REPRESENTATION_RELATIONSHIP ( 'NONE' , 'NONE' ,  #159, #50 ) ;
#46 = UNCERTAINTY_MEASURE_WITH_UNIT (LENGTH_MEASURE( 1.000000000000000100E-005 ), #69, 'distance_accuracy_value', 'NONE');
#47 = ADVANCED_FACE ( 'NONE', ( #195 ), #230, .T. ) ;
#48 = EDGE_LOOP ( 'NONE', ( #14, #15 ) ) ;
#49 = PRODUCT ( 'TS0806W-20.step_TS3075 Tube_0806W', 'TS0806W-20.step_TS3075 Tube_0806W', '', ( #198 ) ) ;
#50 = ADVANCED_BREP_SHAPE_REPRESENTATION ( '', ( #58, #120 ), #25 ) ;
#51 = SURFACE_STYLE_USAGE ( .BOTH. , #2 ) ;
#52 = PRODUCT_DEFINITION_SHAPE ( 'NONE', 'NONE',  #251 ) ;
#53 = AXIS2_PLACEMENT_3D ( 'NONE', #98, #174, #118 ) ;
#54 = DIRECTION ( 'NONE',  ( -1.000000000000000000, -0.0000000000000000000, -0.0000000000000000000 ) ) ;
#55 =( REPRESENTATION_RELATIONSHIP ('NONE','NONE', #72, #159 ) REPRESENTATION_RELATIONSHIP_WITH_TRANSFORMATION ( #248 )SHAPE_REPRESENTATION_RELATIONSHIP( ) );
#56 = VECTOR ( 'NONE', #54, 1000.000000000000000 ) ;
#57 = DIRECTION ( 'NONE',  ( 0.0000000000000000000, 0.0000000000000000000, -1.000000000000000000 ) ) ;
#58 = MANIFOLD_SOLID_BREP ( 'Tube', #109 ) ;
#59 = APPLICATION_CONTEXT ( 'automotive_design' ) ;
#60 = PRESENTATION_STYLE_ASSIGNMENT (( #51 ) ) ;
#61 = DIRECTION ( 'NONE',  ( 0.0000000000000000000, 0.0000000000000000000, -1.000000000000000000 ) ) ;
#62 = EDGE_LOOP ( 'NONE', ( #133, #237 ) ) ;
#63 = CARTESIAN_POINT ( 'NONE',  ( -50.00000000000000000, 0.0000000000000000000, 4.000000000000000000 ) ) ;
#64 = VECTOR ( 'NONE', #89, 1000.000000000000000 ) ;
#65 = CARTESIAN_POINT ( 'NONE',  ( 50.00000000000000000, 4.898587196589412800E-016, -4.000000000000000000 ) ) ;
#66 = CONTEXT_DEPENDENT_SHAPE_REPRESENTATION ( #55, #52 ) ;
#67 = APPLICATION_PROTOCOL_DEFINITION ( 'draft international standard', 'automotive_design', 1998, #8 ) ;
#68 = CARTESIAN_POINT ( 'NONE',  ( 50.00000000000000000, 0.0000000000000000000, 0.0000000000000000000 ) ) ;
#69 =( LENGTH_UNIT ( ) NAMED_UNIT ( * ) SI_UNIT ( .MILLI., .METRE. ) );
#70 =( GEOMETRIC_REPRESENTATION_CONTEXT ( 3 ) GLOBAL_UNCERTAINTY_ASSIGNED_CONTEXT ( ( #175 ) ) GLOBAL_UNIT_ASSIGNED_CONTEXT ( ( #20, #126, #158 ) ) REPRESENTATION_CONTEXT ( 'NONE', 'WORKASPACE' ) );
#71 = LINE ( 'NONE', #28, #56 ) ;
#72 = SHAPE_REPRESENTATION ( 'TS0806W-20.step', ( #103, #246 ), #113 ) ;
#73 = DIRECTION ( 'NONE',  ( 0.0000000000000000000, 0.0000000000000000000, 1.000000000000000000 ) ) ;
#74 = VECTOR ( 'NONE', #83, 1000.000000000000000 ) ;
#75 = ORIENTED_EDGE ( 'NONE', *, *, #165, .T. ) ;
#76 = AXIS2_PLACEMENT_3D ( 'NONE', #229, #226, #19 ) ;
#77 = DIRECTION ( 'NONE',  ( 0.0000000000000000000, 0.0000000000000000000, -1.000000000000000000 ) ) ;
#78 =( NAMED_UNIT ( * ) SI_UNIT ( $, .STERADIAN. ) SOLID_ANGLE_UNIT ( ) );
#79 = FACE_BOUND ( 'NONE', #33, .T. ) ;
#80 = VECTOR ( 'NONE', #21, 1000.000000000000000 ) ;
#81 = PRODUCT_CONTEXT ( 'NONE', #30, 'mechanical' ) ;
#82 = FILL_AREA_STYLE ('',( #87 ) ) ;
#83 = DIRECTION ( 'NONE',  ( -1.000000000000000000, -0.0000000000000000000, -0.0000000000000000000 ) ) ;
#84 = PLANE ( 'NONE',  #27 ) ;
#85 = PRODUCT_DEFINITION_CONTEXT ( 'detailed design', #8, 'design' ) ;
#86 = CYLINDRICAL_SURFACE ( 'NONE', #41, 4.000000000000000000 ) ;
#87 = FILL_AREA_STYLE_COLOUR ( '', #131 ) ;
#88 = FACE_OUTER_BOUND ( 'NONE', #62, .T. ) ;
#89 = DIRECTION ( 'NONE',  ( -1.000000000000000000, -0.0000000000000000000, -0.0000000000000000000 ) ) ;
#90 = COLOUR_RGB ( '',1.000000000000000000, 1.000000000000000000, 1.000000000000000000 ) ;
#91 = APPLICATION_CONTEXT ( 'automotive_design' ) ;
#92 = SHAPE_DEFINITION_REPRESENTATION ( #183, #159 ) ;
#93 = ADVANCED_FACE ( 'NONE', ( #196 ), #29, .F. ) ;
#94 = DIRECTION ( 'NONE',  ( 1.000000000000000000, 0.0000000000000000000, 0.0000000000000000000 ) ) ;
#95 = PRODUCT_RELATED_PRODUCT_CATEGORY ( 'part', '', ( #169 ) ) ;
#96 = CARTESIAN_POINT ( 'NONE',  ( -50.00000000000000000, 0.0000000000000000000, 0.0000000000000000000 ) ) ;
#97 = DIRECTION ( 'NONE',  ( -1.000000000000000000, -0.0000000000000000000, -0.0000000000000000000 ) ) ;
#98 = CARTESIAN_POINT ( 'NONE',  ( 50.00000000000000000, 0.0000000000000000000, 0.0000000000000000000 ) ) ;
#99 = APPLICATION_PROTOCOL_DEFINITION ( 'draft international standard', 'automotive_design', 1998, #91 ) ;
#100 = EDGE_CURVE ( 'NONE', #161, #31, #215, .T. ) ;
#101 = CIRCLE ( 'NONE', #37, 3.000000000000000400 ) ;
#102 =( NAMED_UNIT ( * ) SI_UNIT ( $, .STERADIAN. ) SOLID_ANGLE_UNIT ( ) );
#103 = AXIS2_PLACEMENT_3D ( 'NONE', #11, #202, #132 ) ;
#104 = DIRECTION ( 'NONE',  ( 0.0000000000000000000, 0.0000000000000000000, 1.000000000000000000 ) ) ;
#105 = DIRECTION ( 'NONE',  ( 0.0000000000000000000, 0.0000000000000000000, 1.000000000000000000 ) ) ;
#106 = CARTESIAN_POINT ( 'NONE',  ( 50.00000000000000000, 0.0000000000000000000, 4.000000000000000000 ) ) ;
#107 = CARTESIAN_POINT ( 'NONE',  ( 50.00000000000000000, 0.0000000000000000000, 0.0000000000000000000 ) ) ;
#108 = SURFACE_SIDE_STYLE ('',( #42 ) ) ;
#109 = CLOSED_SHELL ( 'NONE', ( #93, #47, #110, #17, #233, #128 ) ) ;
#110 = ADVANCED_FACE ( 'NONE', ( #88, #193 ), #26, .T. ) ;
#111 = PRESENTATION_STYLE_ASSIGNMENT (( #119 ) ) ;
#112 = UNCERTAINTY_MEASURE_WITH_UNIT (LENGTH_MEASURE( 1.000000000000000100E-005 ), #250, 'distance_accuracy_value', 'NONE');
#113 =( GEOMETRIC_REPRESENTATION_CONTEXT ( 3 ) GLOBAL_UNCERTAINTY_ASSIGNED_CONTEXT ( ( #112 ) ) GLOBAL_UNIT_ASSIGNED_CONTEXT ( ( #250, #211, #102 ) ) REPRESENTATION_CONTEXT ( 'NONE', 'WORKASPACE' ) );
#114 = STYLED_ITEM ( 'NONE', ( #111 ), #58 ) ;
#115 = LINE ( 'NONE', #65, #64 ) ;
#116 = DIRECTION ( 'NONE',  ( 1.000000000000000000, 0.0000000000000000000, 0.0000000000000000000 ) ) ;
#117 = DIRECTION ( 'NONE',  ( 1.000000000000000000, 0.0000000000000000000, 0.0000000000000000000 ) ) ;
#118 = DIRECTION ( 'NONE',  ( 0.0000000000000000000, 0.0000000000000000000, -1.000000000000000000 ) ) ;
#119 = SURFACE_STYLE_USAGE ( .BOTH. , #108 ) ;
#120 = AXIS2_PLACEMENT_3D ( 'NONE', #216, #104, #129 ) ;
#121 = CARTESIAN_POINT ( 'NONE',  ( 0.0000000000000000000, 0.0000000000000000000, 0.0000000000000000000 ) ) ;
#122 = DIRECTION ( 'NONE',  ( 1.000000000000000000, 0.0000000000000000000, 0.0000000000000000000 ) ) ;
#123 = MECHANICAL_DESIGN_GEOMETRIC_PRESENTATION_REPRESENTATION (  '', ( #114 ), #70 ) ;
#124 = CARTESIAN_POINT ( 'NONE',  ( 50.00000000000000000, 0.0000000000000000000, 0.0000000000000000000 ) ) ;
#125 = PRODUCT_DEFINITION ( 'UNKNOWN', '', #191, #23 ) ;
#126 =( NAMED_UNIT ( * ) PLANE_ANGLE_UNIT ( ) SI_UNIT ( $, .RADIAN. ) );
#127 = MECHANICAL_DESIGN_GEOMETRIC_PRESENTATION_REPRESENTATION (  '', ( #39 ), #13 ) ;
#128 = ADVANCED_FACE ( 'NONE', ( #218 ), #22, .F. ) ;
#129 = DIRECTION ( 'NONE',  ( 1.000000000000000000, 0.0000000000000000000, 0.0000000000000000000 ) ) ;
#130 = CARTESIAN_POINT ( 'NONE',  ( 50.00000000000000000, 4.898587196589412800E-016, -4.000000000000000000 ) ) ;
#131 = COLOUR_RGB ( '',1.000000000000000000, 1.000000000000000000, 1.000000000000000000 ) ;
#132 = DIRECTION ( 'NONE',  ( 1.000000000000000000, 0.0000000000000000000, 0.0000000000000000000 ) ) ;
#133 = ORIENTED_EDGE ( 'NONE', *, *, #167, .T. ) ;
#134 = CARTESIAN_POINT ( 'NONE',  ( 50.00000000000000000, 3.673940397442060400E-016, -3.000000000000000400 ) ) ;
#135 = EDGE_CURVE ( 'NONE', #185, #207, #157, .T. ) ;
#136 = ORIENTED_EDGE ( 'NONE', *, *, #151, .F. ) ;
#137 = ORIENTED_EDGE ( 'NONE', *, *, #166, .F. ) ;
#138 = DIRECTION ( 'NONE',  ( 1.000000000000000000, 0.0000000000000000000, 0.0000000000000000000 ) ) ;
#139 = CARTESIAN_POINT ( 'NONE',  ( 50.00000000000000000, 0.0000000000000000000, 0.0000000000000000000 ) ) ;
#140 = ORIENTED_EDGE ( 'NONE', *, *, #227, .F. ) ;
#141 = EDGE_LOOP ( 'NONE', ( #153, #217, #154, #140 ) ) ;
#142 = ORIENTED_EDGE ( 'NONE', *, *, #100, .F. ) ;
#143 = APPLICATION_PROTOCOL_DEFINITION ( 'draft international standard', 'automotive_design', 1998, #59 ) ;
#144 = CARTESIAN_POINT ( 'NONE',  ( -50.00000000000000000, 0.0000000000000000000, 0.0000000000000000000 ) ) ;
#145 = VERTEX_POINT ( 'NONE', #43 ) ;
#146 = DIRECTION ( 'NONE',  ( -1.000000000000000000, -0.0000000000000000000, -0.0000000000000000000 ) ) ;
#147 = ORIENTED_EDGE ( 'NONE', *, *, #239, .T. ) ;
#148 = EDGE_LOOP ( 'NONE', ( #204, #242 ) ) ;
#149 = AXIS2_PLACEMENT_3D ( 'NONE', #68, #219, #77 ) ;
#150 = VERTEX_POINT ( 'NONE', #200 ) ;
#151 = EDGE_CURVE ( 'NONE', #190, #145, #71, .T. ) ;
#152 =( NAMED_UNIT ( * ) PLANE_ANGLE_UNIT ( ) SI_UNIT ( $, .RADIAN. ) );
#153 = ORIENTED_EDGE ( 'NONE', *, *, #135, .F. ) ;
#154 = ORIENTED_EDGE ( 'NONE', *, *, #151, .T. ) ;
#155 = EDGE_CURVE ( 'NONE', #145, #207, #197, .T. ) ;
#156 = AXIS2_PLACEMENT_3D ( 'NONE', #139, #181, #73 ) ;
#157 = LINE ( 'NONE', #134, #80 ) ;
#158 =( NAMED_UNIT ( * ) SI_UNIT ( $, .STERADIAN. ) SOLID_ANGLE_UNIT ( ) );
#159 = SHAPE_REPRESENTATION ( 'TS0806W-20.step_TS3075 Tube_0806W', ( #120 ), #25 ) ;
#160 = DIRECTION ( 'NONE',  ( 0.0000000000000000000, 0.0000000000000000000, 1.000000000000000000 ) ) ;
#161 = VERTEX_POINT ( 'NONE', #36 ) ;
#162 = AXIS2_PLACEMENT_3D ( 'NONE', #124, #117, #247 ) ;
#163 = EDGE_CURVE ( 'NONE', #190, #185, #168, .T. ) ;
#164 = ORIENTED_EDGE ( 'NONE', *, *, #155, .F. ) ;
#165 = EDGE_CURVE ( 'NONE', #1, #150, #115, .T. ) ;
#166 = EDGE_CURVE ( 'NONE', #1, #161, #4, .T. ) ;
#167 = EDGE_CURVE ( 'NONE', #161, #1, #201, .T. ) ;
#168 = CIRCLE ( 'NONE', #162, 3.000000000000000400 ) ;
#169 = PRODUCT ( 'TS0806W-20.step', 'TS0806W-20.step', '', ( #81 ) ) ;
#170 = FACE_OUTER_BOUND ( 'NONE', #199, .T. ) ;
#171 = DIRECTION ( 'NONE',  ( 1.000000000000000000, 0.0000000000000000000, 0.0000000000000000000 ) ) ;
#172 = DIRECTION ( 'NONE',  ( 0.0000000000000000000, 0.0000000000000000000, -1.000000000000000000 ) ) ;
#173 = CARTESIAN_POINT ( 'NONE',  ( 50.00000000000000000, 0.0000000000000000000, 0.0000000000000000000 ) ) ;
#174 = DIRECTION ( 'NONE',  ( 1.000000000000000000, 0.0000000000000000000, 0.0000000000000000000 ) ) ;
#175 = UNCERTAINTY_MEASURE_WITH_UNIT (LENGTH_MEASURE( 1.000000000000000100E-005 ), #20, 'distance_accuracy_value', 'NONE');
#176 = CIRCLE ( 'NONE', #32, 4.000000000000000000 ) ;
#177 = PRODUCT_DEFINITION_SHAPE ( 'NONE', 'NONE',  #187 ) ;
#178 = FILL_AREA_STYLE ('',( #228 ) ) ;
#179 = AXIS2_PLACEMENT_3D ( 'NONE', #38, #171, #245 ) ;
#180 =( LENGTH_UNIT ( ) NAMED_UNIT ( * ) SI_UNIT ( .MILLI., .METRE. ) );
#181 = DIRECTION ( 'NONE',  ( -1.000000000000000000, -0.0000000000000000000, -0.0000000000000000000 ) ) ;
#182 = DIRECTION ( 'NONE',  ( 0.0000000000000000000, 0.0000000000000000000, -1.000000000000000000 ) ) ;
#183 = PRODUCT_DEFINITION_SHAPE ( 'NONE', 'NONE',  #125 ) ;
#184 = PRODUCT_RELATED_PRODUCT_CATEGORY ( 'part', '', ( #49 ) ) ;
#185 = VERTEX_POINT ( 'NONE', #7 ) ;
#186 = ORIENTED_EDGE ( 'NONE', *, *, #249, .T. ) ;
#187 = PRODUCT_DEFINITION ( 'UNKNOWN', '', #188, #85 ) ;
#188 = PRODUCT_DEFINITION_FORMATION_WITH_SPECIFIED_SOURCE ( 'ANY', '', #169, .NOT_KNOWN. ) ;
#189 =( NAMED_UNIT ( * ) SI_UNIT ( $, .STERADIAN. ) SOLID_ANGLE_UNIT ( ) );
#190 = VERTEX_POINT ( 'NONE', #235 ) ;
#191 = PRODUCT_DEFINITION_FORMATION_WITH_SPECIFIED_SOURCE ( 'ANY', '', #49, .NOT_KNOWN. ) ;
#192 = ORIENTED_EDGE ( 'NONE', *, *, #135, .T. ) ;
#193 = FACE_BOUND ( 'NONE', #148, .T. ) ;
#194 = SURFACE_STYLE_FILL_AREA ( #178 ) ;
#195 = FACE_OUTER_BOUND ( 'NONE', #35, .T. ) ;
#196 = FACE_OUTER_BOUND ( 'NONE', #205, .T. ) ;
#197 = CIRCLE ( 'NONE', #76, 3.000000000000000400 ) ;
#198 = PRODUCT_CONTEXT ( 'NONE', #59, 'mechanical' ) ;
#199 = EDGE_LOOP ( 'NONE', ( #212, #234, #222, #147 ) ) ;
#200 = CARTESIAN_POINT ( 'NONE',  ( -50.00000000000000000, 4.898587196589412800E-016, -4.000000000000000000 ) ) ;
#201 = CIRCLE ( 'NONE', #179, 4.000000000000000000 ) ;
#202 = DIRECTION ( 'NONE',  ( 0.0000000000000000000, 0.0000000000000000000, 1.000000000000000000 ) ) ;
#203 = DIRECTION ( 'NONE',  ( 0.0000000000000000000, 0.0000000000000000000, -1.000000000000000000 ) ) ;
#204 = ORIENTED_EDGE ( 'NONE', *, *, #163, .F. ) ;
#205 = EDGE_LOOP ( 'NONE', ( #206, #192, #164, #136 ) ) ;
#206 = ORIENTED_EDGE ( 'NONE', *, *, #163, .T. ) ;
#207 = VERTEX_POINT ( 'NONE', #10 ) ;
#208 = DIRECTION ( 'NONE',  ( -1.000000000000000000, -0.0000000000000000000, -0.0000000000000000000 ) ) ;
#209 = ORIENTED_EDGE ( 'NONE', *, *, #227, .T. ) ;
#210 = ORIENTED_EDGE ( 'NONE', *, *, #155, .T. ) ;
#211 =( NAMED_UNIT ( * ) PLANE_ANGLE_UNIT ( ) SI_UNIT ( $, .RADIAN. ) );
#212 = ORIENTED_EDGE ( 'NONE', *, *, #165, .F. ) ;
#213 = DIRECTION ( 'NONE',  ( 0.0000000000000000000, 0.0000000000000000000, 1.000000000000000000 ) ) ;
#214 =( NAMED_UNIT ( * ) PLANE_ANGLE_UNIT ( ) SI_UNIT ( $, .RADIAN. ) );
#215 = LINE ( 'NONE', #106, #74 ) ;
#216 = CARTESIAN_POINT ( 'NONE',  ( 0.0000000000000000000, 0.0000000000000000000, 0.0000000000000000000 ) ) ;
#217 = ORIENTED_EDGE ( 'NONE', *, *, #9, .T. ) ;
#218 = FACE_OUTER_BOUND ( 'NONE', #141, .T. ) ;
#219 = DIRECTION ( 'NONE',  ( 1.000000000000000000, 0.0000000000000000000, 0.0000000000000000000 ) ) ;
#220 = DIRECTION ( 'NONE',  ( 1.000000000000000000, 0.0000000000000000000, 0.0000000000000000000 ) ) ;
#221 = CARTESIAN_POINT ( 'NONE',  ( -50.00000000000000000, 0.0000000000000000000, 0.0000000000000000000 ) ) ;
#222 = ORIENTED_EDGE ( 'NONE', *, *, #100, .T. ) ;
#223 = AXIS2_PLACEMENT_3D ( 'NONE', #16, #138, #57 ) ;
#224 = AXIS2_PLACEMENT_3D ( 'NONE', #107, #208, #160 ) ;
#225 = APPLICATION_PROTOCOL_DEFINITION ( 'draft international standard', 'automotive_design', 1998, #30 ) ;
#226 = DIRECTION ( 'NONE',  ( 1.000000000000000000, 0.0000000000000000000, 0.0000000000000000000 ) ) ;
#227 = EDGE_CURVE ( 'NONE', #207, #145, #101, .T. ) ;
#228 = FILL_AREA_STYLE_COLOUR ( '', #90 ) ;
#229 = CARTESIAN_POINT ( 'NONE',  ( -50.00000000000000000, 0.0000000000000000000, 0.0000000000000000000 ) ) ;
#230 = CYLINDRICAL_SURFACE ( 'NONE', #156, 4.000000000000000000 ) ;
#231 = CARTESIAN_POINT ( 'NONE',  ( 0.0000000000000000000, 0.0000000000000000000, 0.0000000000000000000 ) ) ;
#232 = PRESENTATION_LAYER_ASSIGNMENT (  '', '', ( #114 ) ) ;
#233 = ADVANCED_FACE ( 'NONE', ( #170 ), #86, .T. ) ;
#234 = ORIENTED_EDGE ( 'NONE', *, *, #167, .F. ) ;
#235 = CARTESIAN_POINT ( 'NONE',  ( 50.00000000000000000, 0.0000000000000000000, 3.000000000000000400 ) ) ;
#236 = SHAPE_DEFINITION_REPRESENTATION ( #177, #72 ) ;
#237 = ORIENTED_EDGE ( 'NONE', *, *, #166, .T. ) ;
#238 = UNCERTAINTY_MEASURE_WITH_UNIT (LENGTH_MEASURE( 1.000000000000000100E-005 ), #180, 'distance_accuracy_value', 'NONE');
#239 = EDGE_CURVE ( 'NONE', #31, #150, #12, .T. ) ;
#240 = AXIS2_PLACEMENT_3D ( 'NONE', #121, #213, #94 ) ;
#241 = AXIS2_PLACEMENT_3D ( 'NONE', #96, #40, #182 ) ;
#242 = ORIENTED_EDGE ( 'NONE', *, *, #9, .F. ) ;
#243 = CIRCLE ( 'NONE', #149, 3.000000000000000400 ) ;
#244 = CARTESIAN_POINT ( 'NONE',  ( -50.00000000000000000, 0.0000000000000000000, 0.0000000000000000000 ) ) ;
#245 = DIRECTION ( 'NONE',  ( 0.0000000000000000000, 0.0000000000000000000, -1.000000000000000000 ) ) ;
#246 = AXIS2_PLACEMENT_3D ( 'NONE', #231, #6, #220 ) ;
#247 = DIRECTION ( 'NONE',  ( 0.0000000000000000000, 0.0000000000000000000, -1.000000000000000000 ) ) ;
#248 = ITEM_DEFINED_TRANSFORMATION ( 'NONE', 'NONE', #246,  #120 ) ;
#249 = EDGE_CURVE ( 'NONE', #150, #31, #176, .T. ) ;
#250 =( LENGTH_UNIT ( ) NAMED_UNIT ( * ) SI_UNIT ( .MILLI., .METRE. ) );
#251 = NEXT_ASSEMBLY_USAGE_OCCURRENCE ( 'NAUO1', ' ', ' ', #187, #125, $ ) ;
ENDSEC;
END-ISO-10303-21;
