ISO-10303-21;
HEADER;
FILE_DESCRIPTION (( 'STEP AP214' ),
    '1' );
FILE_NAME ('TS1209W-20.step.step',
    '2018-06-27T14:22:15',
    ( '' ),
    ( '' ),
    'SwSTEP 2.0',
    'SolidWorks 2018',
    '' );
FILE_SCHEMA (( 'AUTOMOTIVE_DESIGN' ));
ENDSEC;

DATA;
#1 = FACE_OUTER_BOUND ( 'NONE', #130, .T. ) ;
#2 = APPLICATION_PROTOCOL_DEFINITION ( 'draft international standard', 'automotive_design', 1998, #233 ) ;
#3 = PRODUCT ( 'TS1209W-20.step', 'TS1209W-20.step', '', ( #75 ) ) ;
#4 = APPLICATION_CONTEXT ( 'automotive_design' ) ;
#5 = VERTEX_POINT ( 'NONE', #32 ) ;
#6 = AXIS2_PLACEMENT_3D ( 'NONE', #143, #81, #161 ) ;
#7 = AXIS2_PLACEMENT_3D ( 'NONE', #191, #68, #148 ) ;
#8 = CYLINDRICAL_SURFACE ( 'NONE', #84, 4.500000000000000000 ) ;
#9 = EDGE_CURVE ( 'NONE', #250, #27, #40, .T. ) ;
#10 = ORIENTED_EDGE ( 'NONE', *, *, #26, .T. ) ;
#11 = SHAPE_REPRESENTATION ( 'TS1209W-20.step_TS3075 Tube_1209W', ( #99 ), #190 ) ;
#12 = PRESENTATION_STYLE_ASSIGNMENT (( #83 ) ) ;
#13 = DIRECTION ( 'NONE',  ( 0.0000000000000000000, 0.0000000000000000000, -1.000000000000000000 ) ) ;
#14 = PRODUCT_DEFINITION ( 'UNKNOWN', '', #212, #221 ) ;
#15 = SURFACE_STYLE_FILL_AREA ( #53 ) ;
#16 = DIRECTION ( 'NONE',  ( 1.000000000000000000, 0.0000000000000000000, 0.0000000000000000000 ) ) ;
#17 = CARTESIAN_POINT ( 'NONE',  ( 0.0000000000000000000, 0.0000000000000000000, 0.0000000000000000000 ) ) ;
#18 =( NAMED_UNIT ( * ) SI_UNIT ( $, .STERADIAN. ) SOLID_ANGLE_UNIT ( ) );
#19 = FILL_AREA_STYLE_COLOUR ( '', #224 ) ;
#20 = CIRCLE ( 'NONE', #78, 4.500000000000000000 ) ;
#21 = DIRECTION ( 'NONE',  ( 1.000000000000000000, 0.0000000000000000000, 0.0000000000000000000 ) ) ;
#22 = DIRECTION ( 'NONE',  ( 1.000000000000000000, 0.0000000000000000000, 0.0000000000000000000 ) ) ;
#23 = FACE_OUTER_BOUND ( 'NONE', #219, .T. ) ;
#24 = APPLICATION_PROTOCOL_DEFINITION ( 'draft international standard', 'automotive_design', 1998, #4 ) ;
#25 = PRODUCT ( 'TS1209W-20.step_TS3075 Tube_1209W', 'TS1209W-20.step_TS3075 Tube_1209W', '', ( #175 ) ) ;
#26 = EDGE_CURVE ( 'NONE', #5, #36, #33, .T. ) ;
#27 = VERTEX_POINT ( 'NONE', #100 ) ;
#28 = CYLINDRICAL_SURFACE ( 'NONE', #167, 6.000000000000000888 ) ;
#29 = EDGE_LOOP ( 'NONE', ( #157, #10, #97, #47 ) ) ;
#30 = ORIENTED_EDGE ( 'NONE', *, *, #26, .F. ) ;
#31 = CARTESIAN_POINT ( 'NONE',  ( 50.00000000000000000, 0.0000000000000000000, 0.0000000000000000000 ) ) ;
#32 = CARTESIAN_POINT ( 'NONE',  ( 50.00000000000000000, 7.347880794884120722E-16, -6.000000000000000888 ) ) ;
#33 = LINE ( 'NONE', #142, #231 ) ;
#34 = CARTESIAN_POINT ( 'NONE',  ( 50.00000000000000000, 0.0000000000000000000, 0.0000000000000000000 ) ) ;
#35 = CARTESIAN_POINT ( 'NONE',  ( -50.00000000000000000, 0.0000000000000000000, 0.0000000000000000000 ) ) ;
#36 = VERTEX_POINT ( 'NONE', #49 ) ;
#37 = PRODUCT_DEFINITION_SHAPE ( 'NONE', 'NONE',  #14 ) ;
#38 = PLANE ( 'NONE',  #164 ) ;
#39 = DIRECTION ( 'NONE',  ( 0.0000000000000000000, 0.0000000000000000000, -1.000000000000000000 ) ) ;
#40 = LINE ( 'NONE', #206, #235 ) ;
#41 = EDGE_CURVE ( 'NONE', #128, #36, #180, .T. ) ;
#42 = EDGE_LOOP ( 'NONE', ( #150, #94, #207, #54 ) ) ;
#43 = PRODUCT_DEFINITION_SHAPE ( 'NONE', 'NONE',  #45 ) ;
#44 = PRESENTATION_LAYER_ASSIGNMENT (  '', '', ( #104 ) ) ;
#45 = PRODUCT_DEFINITION ( 'UNKNOWN', '', #182, #95 ) ;
#46 = DIRECTION ( 'NONE',  ( 0.0000000000000000000, 0.0000000000000000000, -1.000000000000000000 ) ) ;
#47 = ORIENTED_EDGE ( 'NONE', *, *, #58, .F. ) ;
#48 = CARTESIAN_POINT ( 'NONE',  ( -50.00000000000000000, 0.0000000000000000000, 0.0000000000000000000 ) ) ;
#49 = CARTESIAN_POINT ( 'NONE',  ( -50.00000000000000000, 7.347880794884120722E-16, -6.000000000000000888 ) ) ;
#50 =( NAMED_UNIT ( * ) SI_UNIT ( $, .STERADIAN. ) SOLID_ANGLE_UNIT ( ) );
#51 = DIRECTION ( 'NONE',  ( 1.000000000000000000, 0.0000000000000000000, 0.0000000000000000000 ) ) ;
#52 = AXIS2_PLACEMENT_3D ( 'NONE', #48, #160, #46 ) ;
#53 = FILL_AREA_STYLE ('',( #19 ) ) ;
#54 = ORIENTED_EDGE ( 'NONE', *, *, #226, .F. ) ;
#55 = DIRECTION ( 'NONE',  ( 0.0000000000000000000, 0.0000000000000000000, 1.000000000000000000 ) ) ;
#56 = FACE_OUTER_BOUND ( 'NONE', #236, .T. ) ;
#57 = CARTESIAN_POINT ( 'NONE',  ( 50.00000000000000000, 5.510910596163088569E-16, -4.500000000000000000 ) ) ;
#58 = EDGE_CURVE ( 'NONE', #155, #128, #159, .T. ) ;
#59 = ADVANCED_FACE ( 'NONE', ( #56 ), #121, .T. ) ;
#60 = AXIS2_PLACEMENT_3D ( 'NONE', #35, #21, #85 ) ;
#61 = DIRECTION ( 'NONE',  ( -1.000000000000000000, -0.0000000000000000000, -0.0000000000000000000 ) ) ;
#62 = FILL_AREA_STYLE_COLOUR ( '', #237 ) ;
#63 = EDGE_CURVE ( 'NONE', #250, #247, #70, .T. ) ;
#64 = CIRCLE ( 'NONE', #229, 6.000000000000000888 ) ;
#65 = CARTESIAN_POINT ( 'NONE',  ( -50.00000000000000000, 0.0000000000000000000, 0.0000000000000000000 ) ) ;
#66 = DIRECTION ( 'NONE',  ( 0.0000000000000000000, 0.0000000000000000000, -1.000000000000000000 ) ) ;
#67 = UNCERTAINTY_MEASURE_WITH_UNIT (LENGTH_MEASURE( 1.000000000000000082E-05 ), #136, 'distance_accuracy_value', 'NONE');
#68 = DIRECTION ( 'NONE',  ( 0.0000000000000000000, 0.0000000000000000000, 1.000000000000000000 ) ) ;
#69 = CLOSED_SHELL ( 'NONE', ( #140, #139, #220, #149, #59, #112 ) ) ;
#70 = CIRCLE ( 'NONE', #146, 4.500000000000000000 ) ;
#71 = DIRECTION ( 'NONE',  ( -1.000000000000000000, -0.0000000000000000000, -0.0000000000000000000 ) ) ;
#72 = ORIENTED_EDGE ( 'NONE', *, *, #111, .T. ) ;
#73 = CIRCLE ( 'NONE', #126, 6.000000000000000888 ) ;
#74 = APPLICATION_PROTOCOL_DEFINITION ( 'draft international standard', 'automotive_design', 1998, #131 ) ;
#75 = PRODUCT_CONTEXT ( 'NONE', #233, 'mechanical' ) ;
#76 = ORIENTED_EDGE ( 'NONE', *, *, #41, .T. ) ;
#77 = ORIENTED_EDGE ( 'NONE', *, *, #111, .F. ) ;
#78 = AXIS2_PLACEMENT_3D ( 'NONE', #230, #152, #168 ) ;
#79 = DIRECTION ( 'NONE',  ( -1.000000000000000000, -0.0000000000000000000, -0.0000000000000000000 ) ) ;
#80 = ORIENTED_EDGE ( 'NONE', *, *, #232, .F. ) ;
#81 = DIRECTION ( 'NONE',  ( 1.000000000000000000, 0.0000000000000000000, 0.0000000000000000000 ) ) ;
#82 = CARTESIAN_POINT ( 'NONE',  ( 50.00000000000000000, 0.0000000000000000000, 0.0000000000000000000 ) ) ;
#83 = SURFACE_STYLE_USAGE ( .BOTH. , #127 ) ;
#84 = AXIS2_PLACEMENT_3D ( 'NONE', #82, #79, #185 ) ;
#85 = DIRECTION ( 'NONE',  ( 0.0000000000000000000, 0.0000000000000000000, -1.000000000000000000 ) ) ;
#86 = SHAPE_REPRESENTATION ( 'TS1209W-20.step', ( #87, #123 ), #141 ) ;
#87 = AXIS2_PLACEMENT_3D ( 'NONE', #215, #199, #110 ) ;
#88 = FACE_BOUND ( 'NONE', #172, .T. ) ;
#89 = ORIENTED_EDGE ( 'NONE', *, *, #101, .F. ) ;
#90 = UNCERTAINTY_MEASURE_WITH_UNIT (LENGTH_MEASURE( 1.000000000000000082E-05 ), #213, 'distance_accuracy_value', 'NONE');
#91 = ORIENTED_EDGE ( 'NONE', *, *, #115, .T. ) ;
#92 = DIRECTION ( 'NONE',  ( 0.0000000000000000000, 0.0000000000000000000, -1.000000000000000000 ) ) ;
#93 = MANIFOLD_SOLID_BREP ( 'Tube', #69 ) ;
#94 = ORIENTED_EDGE ( 'NONE', *, *, #63, .T. ) ;
#95 = PRODUCT_DEFINITION_CONTEXT ( 'detailed design', #131, 'design' ) ;
#96 = FACE_OUTER_BOUND ( 'NONE', #176, .T. ) ;
#97 = ORIENTED_EDGE ( 'NONE', *, *, #101, .T. ) ;
#98 = SURFACE_SIDE_STYLE ('',( #179 ) ) ;
#99 = AXIS2_PLACEMENT_3D ( 'NONE', #17, #102, #16 ) ;
#100 = CARTESIAN_POINT ( 'NONE',  ( -50.00000000000000000, 5.510910596163088569E-16, -4.500000000000000000 ) ) ;
#101 = EDGE_CURVE ( 'NONE', #36, #128, #153, .T. ) ;
#102 = DIRECTION ( 'NONE',  ( 0.0000000000000000000, 0.0000000000000000000, 1.000000000000000000 ) ) ;
#103 =( NAMED_UNIT ( * ) PLANE_ANGLE_UNIT ( ) SI_UNIT ( $, .RADIAN. ) );
#104 = STYLED_ITEM ( 'NONE', ( #12 ), #204 ) ;
#105 = DIRECTION ( 'NONE',  ( 0.0000000000000000000, 0.0000000000000000000, 1.000000000000000000 ) ) ;
#106 = UNCERTAINTY_MEASURE_WITH_UNIT (LENGTH_MEASURE( 1.000000000000000082E-05 ), #211, 'distance_accuracy_value', 'NONE');
#107 = CYLINDRICAL_SURFACE ( 'NONE', #183, 4.500000000000000000 ) ;
#108 = CARTESIAN_POINT ( 'NONE',  ( 50.00000000000000000, 0.0000000000000000000, 0.0000000000000000000 ) ) ;
#109 = FACE_BOUND ( 'NONE', #181, .T. ) ;
#110 = DIRECTION ( 'NONE',  ( 1.000000000000000000, 0.0000000000000000000, 0.0000000000000000000 ) ) ;
#111 = EDGE_CURVE ( 'NONE', #234, #27, #144, .T. ) ;
#112 = ADVANCED_FACE ( 'NONE', ( #133 ), #8, .F. ) ;
#113 = PRODUCT_RELATED_PRODUCT_CATEGORY ( 'part', '', ( #3 ) ) ;
#114 = VECTOR ( 'NONE', #124, 1000.000000000000000 ) ;
#115 = EDGE_CURVE ( 'NONE', #247, #250, #222, .T. ) ;
#116 = MECHANICAL_DESIGN_GEOMETRIC_PRESENTATION_REPRESENTATION (  '', ( #104 ), #203 ) ;
#117 = ORIENTED_EDGE ( 'NONE', *, *, #58, .T. ) ;
#118 = CARTESIAN_POINT ( 'NONE',  ( 50.00000000000000000, 0.0000000000000000000, 0.0000000000000000000 ) ) ;
#119 = DIRECTION ( 'NONE',  ( 0.0000000000000000000, 0.0000000000000000000, 1.000000000000000000 ) ) ;
#120 = DIRECTION ( 'NONE',  ( 1.000000000000000000, 0.0000000000000000000, 0.0000000000000000000 ) ) ;
#121 = CYLINDRICAL_SURFACE ( 'NONE', #174, 6.000000000000000888 ) ;
#122 = FILL_AREA_STYLE ('',( #62 ) ) ;
#123 = AXIS2_PLACEMENT_3D ( 'NONE', #170, #55, #22 ) ;
#124 = DIRECTION ( 'NONE',  ( -1.000000000000000000, -0.0000000000000000000, -0.0000000000000000000 ) ) ;
#125 =( NAMED_UNIT ( * ) SI_UNIT ( $, .STERADIAN. ) SOLID_ANGLE_UNIT ( ) );
#126 = AXIS2_PLACEMENT_3D ( 'NONE', #166, #51, #39 ) ;
#127 = SURFACE_SIDE_STYLE ('',( #15 ) ) ;
#128 = VERTEX_POINT ( 'NONE', #210 ) ;
#129 = CARTESIAN_POINT ( 'NONE',  ( 50.00000000000000000, 0.0000000000000000000, 4.500000000000000000 ) ) ;
#130 = EDGE_LOOP ( 'NONE', ( #91, #151, #77, #80 ) ) ;
#131 = APPLICATION_CONTEXT ( 'automotive_design' ) ;
#132 = ITEM_DEFINED_TRANSFORMATION ( 'NONE', 'NONE', #123,  #99 ) ;
#133 = FACE_OUTER_BOUND ( 'NONE', #42, .T. ) ;
#134 = AXIS2_PLACEMENT_3D ( 'NONE', #65, #188, #187 ) ;
#135 =( REPRESENTATION_RELATIONSHIP ('NONE','NONE', #86, #11 ) REPRESENTATION_RELATIONSHIP_WITH_TRANSFORMATION ( #132 )SHAPE_REPRESENTATION_RELATIONSHIP( ) );
#136 =( LENGTH_UNIT ( ) NAMED_UNIT ( * ) SI_UNIT ( .MILLI., .METRE. ) );
#137 = ORIENTED_EDGE ( 'NONE', *, *, #63, .F. ) ;
#138 = ORIENTED_EDGE ( 'NONE', *, *, #41, .F. ) ;
#139 = ADVANCED_FACE ( 'NONE', ( #173 ), #28, .T. ) ;
#140 = ADVANCED_FACE ( 'NONE', ( #1 ), #107, .F. ) ;
#141 =( GEOMETRIC_REPRESENTATION_CONTEXT ( 3 ) GLOBAL_UNCERTAINTY_ASSIGNED_CONTEXT ( ( #67 ) ) GLOBAL_UNIT_ASSIGNED_CONTEXT ( ( #136, #200, #201 ) ) REPRESENTATION_CONTEXT ( 'NONE', 'WORKASPACE' ) );
#142 = CARTESIAN_POINT ( 'NONE',  ( 50.00000000000000000, 7.347880794884120722E-16, -6.000000000000000888 ) ) ;
#143 = CARTESIAN_POINT ( 'NONE',  ( -50.00000000000000000, 0.0000000000000000000, 0.0000000000000000000 ) ) ;
#144 = CIRCLE ( 'NONE', #52, 4.500000000000000000 ) ;
#145 = DIRECTION ( 'NONE',  ( -1.000000000000000000, -0.0000000000000000000, -0.0000000000000000000 ) ) ;
#146 = AXIS2_PLACEMENT_3D ( 'NONE', #31, #120, #13 ) ;
#147 = CARTESIAN_POINT ( 'NONE',  ( 50.00000000000000000, 0.0000000000000000000, 6.000000000000000888 ) ) ;
#148 = DIRECTION ( 'NONE',  ( 1.000000000000000000, 0.0000000000000000000, 0.0000000000000000000 ) ) ;
#149 = ADVANCED_FACE ( 'NONE', ( #96, #109 ), #228, .F. ) ;
#150 = ORIENTED_EDGE ( 'NONE', *, *, #9, .F. ) ;
#151 = ORIENTED_EDGE ( 'NONE', *, *, #9, .T. ) ;
#152 = DIRECTION ( 'NONE',  ( 1.000000000000000000, 0.0000000000000000000, 0.0000000000000000000 ) ) ;
#153 = CIRCLE ( 'NONE', #6, 6.000000000000000888 ) ;
#154 = APPLICATION_CONTEXT ( 'automotive_design' ) ;
#155 = VERTEX_POINT ( 'NONE', #147 ) ;
#156 = APPLICATION_PROTOCOL_DEFINITION ( 'draft international standard', 'automotive_design', 1998, #154 ) ;
#157 = ORIENTED_EDGE ( 'NONE', *, *, #208, .F. ) ;
#158 = STYLED_ITEM ( 'NONE', ( #169 ), #93 ) ;
#159 = LINE ( 'NONE', #241, #186 ) ;
#160 = DIRECTION ( 'NONE',  ( 1.000000000000000000, 0.0000000000000000000, 0.0000000000000000000 ) ) ;
#161 = DIRECTION ( 'NONE',  ( 0.0000000000000000000, 0.0000000000000000000, -1.000000000000000000 ) ) ;
#162 = DIRECTION ( 'NONE',  ( -1.000000000000000000, -0.0000000000000000000, -0.0000000000000000000 ) ) ;
#163 =( NAMED_UNIT ( * ) PLANE_ANGLE_UNIT ( ) SI_UNIT ( $, .RADIAN. ) );
#164 = AXIS2_PLACEMENT_3D ( 'NONE', #194, #189, #66 ) ;
#165 = CARTESIAN_POINT ( 'NONE',  ( -50.00000000000000000, 0.0000000000000000000, 4.500000000000000000 ) ) ;
#166 = CARTESIAN_POINT ( 'NONE',  ( 50.00000000000000000, 0.0000000000000000000, 0.0000000000000000000 ) ) ;
#167 = AXIS2_PLACEMENT_3D ( 'NONE', #118, #239, #244 ) ;
#168 = DIRECTION ( 'NONE',  ( 0.0000000000000000000, 0.0000000000000000000, -1.000000000000000000 ) ) ;
#169 = PRESENTATION_STYLE_ASSIGNMENT (( #225 ) ) ;
#170 = CARTESIAN_POINT ( 'NONE',  ( 0.0000000000000000000, 0.0000000000000000000, 0.0000000000000000000 ) ) ;
#171 = DIRECTION ( 'NONE',  ( 1.000000000000000000, 0.0000000000000000000, 0.0000000000000000000 ) ) ;
#172 = EDGE_LOOP ( 'NONE', ( #197, #137 ) ) ;
#173 = FACE_OUTER_BOUND ( 'NONE', #29, .T. ) ;
#174 = AXIS2_PLACEMENT_3D ( 'NONE', #209, #61, #119 ) ;
#175 = PRODUCT_CONTEXT ( 'NONE', #4, 'mechanical' ) ;
#176 = EDGE_LOOP ( 'NONE', ( #138, #89 ) ) ;
#177 = CONTEXT_DEPENDENT_SHAPE_REPRESENTATION ( #135, #245 ) ;
#178 = ORIENTED_EDGE ( 'NONE', *, *, #243, .T. ) ;
#179 = SURFACE_STYLE_FILL_AREA ( #122 ) ;
#180 = CIRCLE ( 'NONE', #134, 6.000000000000000888 ) ;
#181 = EDGE_LOOP ( 'NONE', ( #72, #193 ) ) ;
#182 = PRODUCT_DEFINITION_FORMATION_WITH_SPECIFIED_SOURCE ( 'ANY', '', #3, .NOT_KNOWN. ) ;
#183 = AXIS2_PLACEMENT_3D ( 'NONE', #34, #71, #105 ) ;
#184 = SHAPE_DEFINITION_REPRESENTATION ( #43, #86 ) ;
#185 = DIRECTION ( 'NONE',  ( 0.0000000000000000000, 0.0000000000000000000, 1.000000000000000000 ) ) ;
#186 = VECTOR ( 'NONE', #145, 1000.000000000000000 ) ;
#187 = DIRECTION ( 'NONE',  ( 0.0000000000000000000, 0.0000000000000000000, -1.000000000000000000 ) ) ;
#188 = DIRECTION ( 'NONE',  ( 1.000000000000000000, 0.0000000000000000000, 0.0000000000000000000 ) ) ;
#189 = DIRECTION ( 'NONE',  ( 1.000000000000000000, 0.0000000000000000000, 0.0000000000000000000 ) ) ;
#190 =( GEOMETRIC_REPRESENTATION_CONTEXT ( 3 ) GLOBAL_UNCERTAINTY_ASSIGNED_CONTEXT ( ( #218 ) ) GLOBAL_UNIT_ASSIGNED_CONTEXT ( ( #248, #216, #125 ) ) REPRESENTATION_CONTEXT ( 'NONE', 'WORKASPACE' ) );
#191 = CARTESIAN_POINT ( 'NONE',  ( 0.0000000000000000000, 0.0000000000000000000, 0.0000000000000000000 ) ) ;
#192 = CARTESIAN_POINT ( 'NONE',  ( 50.00000000000000000, 0.0000000000000000000, 4.500000000000000000 ) ) ;
#193 = ORIENTED_EDGE ( 'NONE', *, *, #226, .T. ) ;
#194 = CARTESIAN_POINT ( 'NONE',  ( 50.00000000000000000, 0.0000000000000000000, 0.0000000000000000000 ) ) ;
#195 = ORIENTED_EDGE ( 'NONE', *, *, #243, .F. ) ;
#196 = SHAPE_DEFINITION_REPRESENTATION ( #37, #11 ) ;
#197 = ORIENTED_EDGE ( 'NONE', *, *, #115, .F. ) ;
#198 = LINE ( 'NONE', #129, #114 ) ;
#199 = DIRECTION ( 'NONE',  ( 0.0000000000000000000, 0.0000000000000000000, 1.000000000000000000 ) ) ;
#200 =( NAMED_UNIT ( * ) PLANE_ANGLE_UNIT ( ) SI_UNIT ( $, .RADIAN. ) );
#201 =( NAMED_UNIT ( * ) SI_UNIT ( $, .STERADIAN. ) SOLID_ANGLE_UNIT ( ) );
#202 = AXIS2_PLACEMENT_3D ( 'NONE', #108, #249, #92 ) ;
#203 =( GEOMETRIC_REPRESENTATION_CONTEXT ( 3 ) GLOBAL_UNCERTAINTY_ASSIGNED_CONTEXT ( ( #90 ) ) GLOBAL_UNIT_ASSIGNED_CONTEXT ( ( #213, #103, #18 ) ) REPRESENTATION_CONTEXT ( 'NONE', 'WORKASPACE' ) );
#204 = ADVANCED_BREP_SHAPE_REPRESENTATION ( '', ( #93, #99 ), #190 ) ;
#205 = PRESENTATION_LAYER_ASSIGNMENT (  '', '', ( #158 ) ) ;
#206 = CARTESIAN_POINT ( 'NONE',  ( 50.00000000000000000, 5.510910596163088569E-16, -4.500000000000000000 ) ) ;
#207 = ORIENTED_EDGE ( 'NONE', *, *, #232, .T. ) ;
#208 = EDGE_CURVE ( 'NONE', #5, #155, #73, .T. ) ;
#209 = CARTESIAN_POINT ( 'NONE',  ( 50.00000000000000000, 0.0000000000000000000, 0.0000000000000000000 ) ) ;
#210 = CARTESIAN_POINT ( 'NONE',  ( -50.00000000000000000, 0.0000000000000000000, 6.000000000000000888 ) ) ;
#211 =( LENGTH_UNIT ( ) NAMED_UNIT ( * ) SI_UNIT ( .MILLI., .METRE. ) );
#212 = PRODUCT_DEFINITION_FORMATION_WITH_SPECIFIED_SOURCE ( 'ANY', '', #25, .NOT_KNOWN. ) ;
#213 =( LENGTH_UNIT ( ) NAMED_UNIT ( * ) SI_UNIT ( .MILLI., .METRE. ) );
#214 = ORIENTED_EDGE ( 'NONE', *, *, #208, .T. ) ;
#215 = CARTESIAN_POINT ( 'NONE',  ( 0.0000000000000000000, 0.0000000000000000000, 0.0000000000000000000 ) ) ;
#216 =( NAMED_UNIT ( * ) PLANE_ANGLE_UNIT ( ) SI_UNIT ( $, .RADIAN. ) );
#217 = MECHANICAL_DESIGN_GEOMETRIC_PRESENTATION_REPRESENTATION (  '', ( #158 ), #238 ) ;
#218 = UNCERTAINTY_MEASURE_WITH_UNIT (LENGTH_MEASURE( 1.000000000000000082E-05 ), #248, 'distance_accuracy_value', 'NONE');
#219 = EDGE_LOOP ( 'NONE', ( #178, #214 ) ) ;
#220 = ADVANCED_FACE ( 'NONE', ( #23, #88 ), #38, .T. ) ;
#221 = PRODUCT_DEFINITION_CONTEXT ( 'detailed design', #154, 'design' ) ;
#222 = CIRCLE ( 'NONE', #202, 4.500000000000000000 ) ;
#223 = DIRECTION ( 'NONE',  ( -1.000000000000000000, -0.0000000000000000000, -0.0000000000000000000 ) ) ;
#224 = COLOUR_RGB ( '',1.000000000000000000, 1.000000000000000000, 1.000000000000000000 ) ;
#225 = SURFACE_STYLE_USAGE ( .BOTH. , #98 ) ;
#226 = EDGE_CURVE ( 'NONE', #27, #234, #20, .T. ) ;
#227 = CARTESIAN_POINT ( 'NONE',  ( 50.00000000000000000, 0.0000000000000000000, 0.0000000000000000000 ) ) ;
#228 = PLANE ( 'NONE',  #60 ) ;
#229 = AXIS2_PLACEMENT_3D ( 'NONE', #227, #171, #246 ) ;
#230 = CARTESIAN_POINT ( 'NONE',  ( -50.00000000000000000, 0.0000000000000000000, 0.0000000000000000000 ) ) ;
#231 = VECTOR ( 'NONE', #223, 1000.000000000000000 ) ;
#232 = EDGE_CURVE ( 'NONE', #247, #234, #198, .T. ) ;
#233 = APPLICATION_CONTEXT ( 'automotive_design' ) ;
#234 = VERTEX_POINT ( 'NONE', #165 ) ;
#235 = VECTOR ( 'NONE', #162, 1000.000000000000000 ) ;
#236 = EDGE_LOOP ( 'NONE', ( #30, #195, #117, #76 ) ) ;
#237 = COLOUR_RGB ( '',1.000000000000000000, 1.000000000000000000, 1.000000000000000000 ) ;
#238 =( GEOMETRIC_REPRESENTATION_CONTEXT ( 3 ) GLOBAL_UNCERTAINTY_ASSIGNED_CONTEXT ( ( #106 ) ) GLOBAL_UNIT_ASSIGNED_CONTEXT ( ( #211, #163, #50 ) ) REPRESENTATION_CONTEXT ( 'NONE', 'WORKASPACE' ) );
#239 = DIRECTION ( 'NONE',  ( -1.000000000000000000, -0.0000000000000000000, -0.0000000000000000000 ) ) ;
#240 = PRODUCT_RELATED_PRODUCT_CATEGORY ( 'part', '', ( #25 ) ) ;
#241 = CARTESIAN_POINT ( 'NONE',  ( 50.00000000000000000, 0.0000000000000000000, 6.000000000000000888 ) ) ;
#242 = SHAPE_REPRESENTATION_RELATIONSHIP ( 'NONE' , 'NONE' ,  #11, #204 ) ;
#243 = EDGE_CURVE ( 'NONE', #155, #5, #64, .T. ) ;
#244 = DIRECTION ( 'NONE',  ( 0.0000000000000000000, 0.0000000000000000000, 1.000000000000000000 ) ) ;
#245 = PRODUCT_DEFINITION_SHAPE ( 'NONE', 'NONE',  #251 ) ;
#246 = DIRECTION ( 'NONE',  ( 0.0000000000000000000, 0.0000000000000000000, -1.000000000000000000 ) ) ;
#247 = VERTEX_POINT ( 'NONE', #192 ) ;
#248 =( LENGTH_UNIT ( ) NAMED_UNIT ( * ) SI_UNIT ( .MILLI., .METRE. ) );
#249 = DIRECTION ( 'NONE',  ( 1.000000000000000000, 0.0000000000000000000, 0.0000000000000000000 ) ) ;
#250 = VERTEX_POINT ( 'NONE', #57 ) ;
#251 = NEXT_ASSEMBLY_USAGE_OCCURRENCE ( 'NAUO1', ' ', ' ', #45, #14, $ ) ;
ENDSEC;
END-ISO-10303-21;
