ISO-10303-21;
HEADER;
FILE_DESCRIPTION (( 'STEP AP214' ),
    '1' );
FILE_NAME ('TU0425BU-20.step.step',
    '2011-05-28T08:35:12',
    ( 'SysAdmin' ),
    ( 'SolidWorks' ),
    'SwSTEP 2.0',
    'SolidWorks 2011',
    '' );
FILE_SCHEMA (( 'AUTOMOTIVE_DESIGN' ));
ENDSEC;

DATA;
#1 = CIRCLE ( 'NONE', #108, 1.250000000000000200 ) ;
#2 = CIRCLE ( 'NONE', #115, 1.250000000000000200 ) ;
#3 = DIRECTION ( 'NONE',  ( -1.000000000000000000, -0.0000000000000000000, -0.0000000000000000000 ) ) ;
#4 =( GEOMETRIC_REPRESENTATION_CONTEXT ( 3 ) GLOBAL_UNCERTAINTY_ASSIGNED_CONTEXT ( ( #5 ) ) GLOBAL_UNIT_ASSIGNED_CONTEXT ( ( #125, #124, #123 ) ) REPRESENTATION_CONTEXT ( 'NONE', 'WORKASPACE' ) );
#5 = UNCERTAINTY_MEASURE_WITH_UNIT (LENGTH_MEASURE( 1.000000000000000100E-005 ), #125, 'distance_accuracy_value', 'NONE');
#6 = COLOUR_RGB ( '',0.2470588235294117800, 0.6470588235294118000, 1.000000000000000000 ) ;
#7 = EDGE_LOOP ( 'NONE', ( #15, #13 ) ) ;
#8 = CLOSED_SHELL ( 'NONE', ( #55, #76, #45, #41, #10, #90 ) ) ;
#9 = EDGE_LOOP ( 'NONE', ( #11, #86, #17, #88 ) ) ;
#10 = ADVANCED_FACE ( 'NONE', ( #133 ), #69, .F. ) ;
#11 = ORIENTED_EDGE ( 'NONE', *, *, #40, .F. ) ;
#12 = EDGE_LOOP ( 'NONE', ( #87, #16 ) ) ;
#13 = ORIENTED_EDGE ( 'NONE', *, *, #14, .F. ) ;
#14 = EDGE_CURVE ( 'NONE', #53, #39, #120, .T. ) ;
#15 = ORIENTED_EDGE ( 'NONE', *, *, #52, .F. ) ;
#16 = ORIENTED_EDGE ( 'NONE', *, *, #18, .T. ) ;
#17 = ORIENTED_EDGE ( 'NONE', *, *, #38, .T. ) ;
#18 = EDGE_CURVE ( 'NONE', #137, #56, #2, .T. ) ;
#19 = PRESENTATION_LAYER_ASSIGNMENT (  '', '', ( #20 ) ) ;
#20 = STYLED_ITEM ( 'NONE', ( #21 ), #45 ) ;
#21 = PRESENTATION_STYLE_ASSIGNMENT (( #22 ) ) ;
#22 = SURFACE_STYLE_USAGE ( .BOTH. , #23 ) ;
#23 = SURFACE_SIDE_STYLE ('',( #24 ) ) ;
#24 = SURFACE_STYLE_FILL_AREA ( #25 ) ;
#25 = FILL_AREA_STYLE ('',( #68 ) ) ;
#26 =( GEOMETRIC_REPRESENTATION_CONTEXT ( 3 ) GLOBAL_UNCERTAINTY_ASSIGNED_CONTEXT ( ( #140 ) ) GLOBAL_UNIT_ASSIGNED_CONTEXT ( ( #166, #165, #164 ) ) REPRESENTATION_CONTEXT ( 'NONE', 'WORKASPACE' ) );
#27 = DIRECTION ( 'NONE',  ( -1.000000000000000000, -0.0000000000000000000, -0.0000000000000000000 ) ) ;
#28 = VECTOR ( 'NONE', #27, 1000.000000000000000 ) ;
#29 = COLOUR_RGB ( '',0.2470588235294117800, 0.6470588235294118000, 1.000000000000000000 ) ;
#30 = DIRECTION ( 'NONE',  ( 0.0000000000000000000, 0.0000000000000000000, -1.000000000000000000 ) ) ;
#31 = DIRECTION ( 'NONE',  ( 1.000000000000000000, 0.0000000000000000000, 0.0000000000000000000 ) ) ;
#32 = CARTESIAN_POINT ( 'NONE',  ( 0.0000000000000000000, 0.0000000000000000000, 0.0000000000000000000 ) ) ;
#33 = CARTESIAN_POINT ( 'NONE',  ( 105.6568542494924000, 0.0000000000000000000, 2.000000000000000000 ) ) ;
#34 = FACE_OUTER_BOUND ( 'NONE', #81, .T. ) ;
#35 = ORIENTED_EDGE ( 'NONE', *, *, #40, .T. ) ;
#36 = EDGE_CURVE ( 'NONE', #56, #137, #1, .T. ) ;
#37 = ORIENTED_EDGE ( 'NONE', *, *, #38, .F. ) ;
#38 = EDGE_CURVE ( 'NONE', #39, #56, #122, .T. ) ;
#39 = VERTEX_POINT ( 'NONE', #111 ) ;
#40 = EDGE_CURVE ( 'NONE', #53, #137, #66, .T. ) ;
#41 = ADVANCED_FACE ( 'NONE', ( #109, #102 ), #104, .F. ) ;
#42 = ORIENTED_EDGE ( 'NONE', *, *, #50, .F. ) ;
#43 = EDGE_CURVE ( 'NONE', #82, #77, #62, .T. ) ;
#44 = ORIENTED_EDGE ( 'NONE', *, *, #43, .F. ) ;
#45 = ADVANCED_FACE ( 'NONE', ( #34 ), #180, .T. ) ;
#46 = EDGE_CURVE ( 'NONE', #82, #138, #179, .T. ) ;
#47 = ORIENTED_EDGE ( 'NONE', *, *, #85, .F. ) ;
#48 = ORIENTED_EDGE ( 'NONE', *, *, #43, .T. ) ;
#49 = ORIENTED_EDGE ( 'NONE', *, *, #50, .T. ) ;
#50 = EDGE_CURVE ( 'NONE', #77, #74, #185, .T. ) ;
#51 = EDGE_LOOP ( 'NONE', ( #78, #84, #83, #44 ) ) ;
#52 = EDGE_CURVE ( 'NONE', #39, #53, #184, .T. ) ;
#53 = VERTEX_POINT ( 'NONE', #192 ) ;
#54 = CARTESIAN_POINT ( 'NONE',  ( 105.6568542494924000, 0.0000000000000000000, 0.0000000000000000000 ) ) ;
#55 = ADVANCED_FACE ( 'NONE', ( #208 ), #152, .F. ) ;
#56 = VERTEX_POINT ( 'NONE', #205 ) ;
#57 = ORIENTED_EDGE ( 'NONE', *, *, #46, .F. ) ;
#58 = PRESENTATION_STYLE_ASSIGNMENT (( #59 ) ) ;
#59 = SURFACE_STYLE_USAGE ( .BOTH. , #60 ) ;
#60 = SURFACE_SIDE_STYLE ('',( #61 ) ) ;
#61 = SURFACE_STYLE_FILL_AREA ( #103 ) ;
#62 = LINE ( 'NONE', #33, #28 ) ;
#63 = DIRECTION ( 'NONE',  ( -1.000000000000000000, -0.0000000000000000000, -0.0000000000000000000 ) ) ;
#64 = VECTOR ( 'NONE', #63, 1000.000000000000000 ) ;
#65 = CARTESIAN_POINT ( 'NONE',  ( 105.6568542494924000, 1.530808498934191600E-016, -1.250000000000000200 ) ) ;
#66 = LINE ( 'NONE', #65, #64 ) ;
#67 = COLOUR_RGB ( '',0.2470588235294117800, 0.6470588235294118000, 1.000000000000000000 ) ;
#68 = FILL_AREA_STYLE_COLOUR ( '', #29 ) ;
#69 = CYLINDRICAL_SURFACE ( 'NONE', #72, 1.250000000000000200 ) ;
#70 = FILL_AREA_STYLE ('',( #71 ) ) ;
#71 = FILL_AREA_STYLE_COLOUR ( '', #6 ) ;
#72 = AXIS2_PLACEMENT_3D ( 'NONE', #54, #3, #121 ) ;
#73 = ORIENTED_EDGE ( 'NONE', *, *, #79, .F. ) ;
#74 = VERTEX_POINT ( 'NONE', #212 ) ;
#75 = EDGE_LOOP ( 'NONE', ( #42, #47 ) ) ;
#76 = ADVANCED_FACE ( 'NONE', ( #211 ), #155, .T. ) ;
#77 = VERTEX_POINT ( 'NONE', #156 ) ;
#78 = ORIENTED_EDGE ( 'NONE', *, *, #80, .F. ) ;
#79 = EDGE_CURVE ( 'NONE', #138, #74, #240, .T. ) ;
#80 = EDGE_CURVE ( 'NONE', #138, #82, #243, .T. ) ;
#81 = EDGE_LOOP ( 'NONE', ( #73, #57, #48, #49 ) ) ;
#82 = VERTEX_POINT ( 'NONE', #234 ) ;
#83 = ORIENTED_EDGE ( 'NONE', *, *, #85, .T. ) ;
#84 = ORIENTED_EDGE ( 'NONE', *, *, #79, .T. ) ;
#85 = EDGE_CURVE ( 'NONE', #74, #77, #224, .T. ) ;
#86 = ORIENTED_EDGE ( 'NONE', *, *, #14, .T. ) ;
#87 = ORIENTED_EDGE ( 'NONE', *, *, #36, .T. ) ;
#88 = ORIENTED_EDGE ( 'NONE', *, *, #18, .F. ) ;
#89 = EDGE_LOOP ( 'NONE', ( #92, #91 ) ) ;
#90 = ADVANCED_FACE ( 'NONE', ( #199, #223 ), #227, .T. ) ;
#91 = ORIENTED_EDGE ( 'NONE', *, *, #80, .T. ) ;
#92 = ORIENTED_EDGE ( 'NONE', *, *, #46, .T. ) ;
#93 = UNCERTAINTY_MEASURE_WITH_UNIT (LENGTH_MEASURE( 1.000000000000000100E-005 ), #96, 'distance_accuracy_value', 'NONE');
#94 =( NAMED_UNIT ( * ) SI_UNIT ( $, .STERADIAN. ) SOLID_ANGLE_UNIT ( ) );
#95 =( NAMED_UNIT ( * ) PLANE_ANGLE_UNIT ( ) SI_UNIT ( $, .RADIAN. ) );
#96 =( LENGTH_UNIT ( ) NAMED_UNIT ( * ) SI_UNIT ( .MILLI., .METRE. ) );
#97 = MECHANICAL_DESIGN_GEOMETRIC_PRESENTATION_REPRESENTATION (  '', ( #20 ), #149 ) ;
#98 = DIRECTION ( 'NONE',  ( -1.000000000000000000, -0.0000000000000000000, -0.0000000000000000000 ) ) ;
#99 = VECTOR ( 'NONE', #98, 1000.000000000000000 ) ;
#100 = CARTESIAN_POINT ( 'NONE',  ( 105.6568542494924000, 0.0000000000000000000, 1.250000000000000200 ) ) ;
#101 = FILL_AREA_STYLE_COLOUR ( '', #67 ) ;
#102 = FACE_BOUND ( 'NONE', #12, .T. ) ;
#103 = FILL_AREA_STYLE ('',( #101 ) ) ;
#104 = PLANE ( 'NONE',  #110 ) ;
#105 = DIRECTION ( 'NONE',  ( 0.0000000000000000000, 0.0000000000000000000, -1.000000000000000000 ) ) ;
#106 = DIRECTION ( 'NONE',  ( 1.000000000000000000, 0.0000000000000000000, 0.0000000000000000000 ) ) ;
#107 = CARTESIAN_POINT ( 'NONE',  ( 0.0000000000000000000, 0.0000000000000000000, 0.0000000000000000000 ) ) ;
#108 = AXIS2_PLACEMENT_3D ( 'NONE', #107, #106, #105 ) ;
#109 = FACE_OUTER_BOUND ( 'NONE', #75, .T. ) ;
#110 = AXIS2_PLACEMENT_3D ( 'NONE', #32, #31, #30 ) ;
#111 = CARTESIAN_POINT ( 'NONE',  ( 100.0000000000000000, 0.0000000000000000000, 1.250000000000000200 ) ) ;
#112 = DIRECTION ( 'NONE',  ( 0.0000000000000000000, 0.0000000000000000000, -1.000000000000000000 ) ) ;
#113 = DIRECTION ( 'NONE',  ( 1.000000000000000000, 0.0000000000000000000, 0.0000000000000000000 ) ) ;
#114 = CARTESIAN_POINT ( 'NONE',  ( 0.0000000000000000000, 0.0000000000000000000, 0.0000000000000000000 ) ) ;
#115 = AXIS2_PLACEMENT_3D ( 'NONE', #114, #113, #112 ) ;
#116 = DIRECTION ( 'NONE',  ( 0.0000000000000000000, 0.0000000000000000000, -1.000000000000000000 ) ) ;
#117 = DIRECTION ( 'NONE',  ( 1.000000000000000000, 0.0000000000000000000, 0.0000000000000000000 ) ) ;
#118 = CARTESIAN_POINT ( 'NONE',  ( 100.0000000000000000, 0.0000000000000000000, 0.0000000000000000000 ) ) ;
#119 = AXIS2_PLACEMENT_3D ( 'NONE', #118, #117, #116 ) ;
#120 = CIRCLE ( 'NONE', #119, 1.250000000000000200 ) ;
#121 = DIRECTION ( 'NONE',  ( 0.0000000000000000000, 0.0000000000000000000, 1.000000000000000000 ) ) ;
#122 = LINE ( 'NONE', #100, #99 ) ;
#123 =( NAMED_UNIT ( * ) SI_UNIT ( $, .STERADIAN. ) SOLID_ANGLE_UNIT ( ) );
#124 =( NAMED_UNIT ( * ) PLANE_ANGLE_UNIT ( ) SI_UNIT ( $, .RADIAN. ) );
#125 =( LENGTH_UNIT ( ) NAMED_UNIT ( * ) SI_UNIT ( .MILLI., .METRE. ) );
#126 = MECHANICAL_DESIGN_GEOMETRIC_PRESENTATION_REPRESENTATION (  '', ( #128 ), #4 ) ;
#127 = PRESENTATION_LAYER_ASSIGNMENT (  '', '', ( #128 ) ) ;
#128 = STYLED_ITEM ( 'NONE', ( #129 ), #10 ) ;
#129 = PRESENTATION_STYLE_ASSIGNMENT (( #130 ) ) ;
#130 = SURFACE_STYLE_USAGE ( .BOTH. , #131 ) ;
#131 = SURFACE_SIDE_STYLE ('',( #132 ) ) ;
#132 = SURFACE_STYLE_FILL_AREA ( #70 ) ;
#133 = FACE_OUTER_BOUND ( 'NONE', #9, .T. ) ;
#134 = EDGE_LOOP ( 'NONE', ( #136, #35, #135, #37 ) ) ;
#135 = ORIENTED_EDGE ( 'NONE', *, *, #36, .F. ) ;
#136 = ORIENTED_EDGE ( 'NONE', *, *, #52, .T. ) ;
#137 = VERTEX_POINT ( 'NONE', #251 ) ;
#138 = VERTEX_POINT ( 'NONE', #231 ) ;
#139 = MANIFOLD_SOLID_BREP ( 'Tube', #8 ) ;
#140 = UNCERTAINTY_MEASURE_WITH_UNIT (LENGTH_MEASURE( 1.000000000000000100E-005 ), #166, 'distance_accuracy_value', 'NONE');
#141 =( GEOMETRIC_REPRESENTATION_CONTEXT ( 3 ) GLOBAL_UNCERTAINTY_ASSIGNED_CONTEXT ( ( #142 ) ) GLOBAL_UNIT_ASSIGNED_CONTEXT ( ( #145, #144, #143 ) ) REPRESENTATION_CONTEXT ( 'NONE', 'WORKASPACE' ) );
#142 = UNCERTAINTY_MEASURE_WITH_UNIT (LENGTH_MEASURE( 1.000000000000000100E-005 ), #145, 'distance_accuracy_value', 'NONE');
#143 =( NAMED_UNIT ( * ) SI_UNIT ( $, .STERADIAN. ) SOLID_ANGLE_UNIT ( ) );
#144 =( NAMED_UNIT ( * ) PLANE_ANGLE_UNIT ( ) SI_UNIT ( $, .RADIAN. ) );
#145 =( LENGTH_UNIT ( ) NAMED_UNIT ( * ) SI_UNIT ( .MILLI., .METRE. ) );
#146 = MECHANICAL_DESIGN_GEOMETRIC_PRESENTATION_REPRESENTATION (  '', ( #148 ), #141 ) ;
#147 = PRESENTATION_LAYER_ASSIGNMENT (  '', '', ( #148 ) ) ;
#148 = STYLED_ITEM ( 'NONE', ( #58 ), #41 ) ;
#149 =( GEOMETRIC_REPRESENTATION_CONTEXT ( 3 ) GLOBAL_UNCERTAINTY_ASSIGNED_CONTEXT ( ( #93 ) ) GLOBAL_UNIT_ASSIGNED_CONTEXT ( ( #96, #95, #94 ) ) REPRESENTATION_CONTEXT ( 'NONE', 'WORKASPACE' ) );
#150 = UNCERTAINTY_MEASURE_WITH_UNIT (LENGTH_MEASURE( 1.000000000000000100E-005 ), #244, 'distance_accuracy_value', 'NONE');
#151 = COLOUR_RGB ( '',0.2470588235294117800, 0.6470588235294118000, 1.000000000000000000 ) ;
#152 = CYLINDRICAL_SURFACE ( 'NONE', #246, 1.250000000000000200 ) ;
#153 = FILL_AREA_STYLE ('',( #154 ) ) ;
#154 = FILL_AREA_STYLE_COLOUR ( '', #203 ) ;
#155 = CYLINDRICAL_SURFACE ( 'NONE', #182, 2.000000000000000000 ) ;
#156 = CARTESIAN_POINT ( 'NONE',  ( 0.0000000000000000000, 0.0000000000000000000, 2.000000000000000000 ) ) ;
#157 = FILL_AREA_STYLE ('',( #210 ) ) ;
#158 = DIRECTION ( 'NONE',  ( 0.0000000000000000000, 0.0000000000000000000, -1.000000000000000000 ) ) ;
#159 = PRESENTATION_STYLE_ASSIGNMENT (( #160 ) ) ;
#160 = SURFACE_STYLE_USAGE ( .BOTH. , #161 ) ;
#161 = SURFACE_SIDE_STYLE ('',( #194 ) ) ;
#162 =( GEOMETRIC_REPRESENTATION_CONTEXT ( 3 ) GLOBAL_UNCERTAINTY_ASSIGNED_CONTEXT ( ( #170 ) ) GLOBAL_UNIT_ASSIGNED_CONTEXT ( ( #191, #188, #187 ) ) REPRESENTATION_CONTEXT ( 'NONE', 'WORKASPACE' ) );
#163 = DIRECTION ( 'NONE',  ( 1.000000000000000000, 0.0000000000000000000, 0.0000000000000000000 ) ) ;
#164 =( NAMED_UNIT ( * ) SI_UNIT ( $, .STERADIAN. ) SOLID_ANGLE_UNIT ( ) );
#165 =( NAMED_UNIT ( * ) PLANE_ANGLE_UNIT ( ) SI_UNIT ( $, .RADIAN. ) );
#166 =( LENGTH_UNIT ( ) NAMED_UNIT ( * ) SI_UNIT ( .MILLI., .METRE. ) );
#167 = MECHANICAL_DESIGN_GEOMETRIC_PRESENTATION_REPRESENTATION (  '', ( #169 ), #26 ) ;
#168 = PRESENTATION_LAYER_ASSIGNMENT (  '', '', ( #169 ) ) ;
#169 = STYLED_ITEM ( 'NONE', ( #256 ), #139 ) ;
#170 = UNCERTAINTY_MEASURE_WITH_UNIT (LENGTH_MEASURE( 1.000000000000000100E-005 ), #191, 'distance_accuracy_value', 'NONE');
#171 = DIRECTION ( 'NONE',  ( -1.000000000000000000, -0.0000000000000000000, -0.0000000000000000000 ) ) ;
#172 = PRESENTATION_LAYER_ASSIGNMENT (  '', '', ( #173 ) ) ;
#173 = STYLED_ITEM ( 'NONE', ( #174 ), #76 ) ;
#174 = PRESENTATION_STYLE_ASSIGNMENT (( #175 ) ) ;
#175 = SURFACE_STYLE_USAGE ( .BOTH. , #176 ) ;
#176 = SURFACE_SIDE_STYLE ('',( #177 ) ) ;
#177 = SURFACE_STYLE_FILL_AREA ( #153 ) ;
#178 = DIRECTION ( 'NONE',  ( -1.000000000000000000, -0.0000000000000000000, -0.0000000000000000000 ) ) ;
#179 = CIRCLE ( 'NONE', #247, 2.000000000000000000 ) ;
#180 = CYLINDRICAL_SURFACE ( 'NONE', #209, 2.000000000000000000 ) ;
#181 = DIRECTION ( 'NONE',  ( 1.000000000000000000, 0.0000000000000000000, 0.0000000000000000000 ) ) ;
#182 = AXIS2_PLACEMENT_3D ( 'NONE', #197, #171, #193 ) ;
#183 = CARTESIAN_POINT ( 'NONE',  ( 100.0000000000000000, 0.0000000000000000000, 0.0000000000000000000 ) ) ;
#184 = CIRCLE ( 'NONE', #264, 1.250000000000000200 ) ;
#185 = CIRCLE ( 'NONE', #190, 2.000000000000000000 ) ;
#186 = CARTESIAN_POINT ( 'NONE',  ( 0.0000000000000000000, 0.0000000000000000000, 0.0000000000000000000 ) ) ;
#187 =( NAMED_UNIT ( * ) SI_UNIT ( $, .STERADIAN. ) SOLID_ANGLE_UNIT ( ) );
#188 =( NAMED_UNIT ( * ) PLANE_ANGLE_UNIT ( ) SI_UNIT ( $, .RADIAN. ) );
#189 = DIRECTION ( 'NONE',  ( 1.000000000000000000, 0.0000000000000000000, 0.0000000000000000000 ) ) ;
#190 = AXIS2_PLACEMENT_3D ( 'NONE', #186, #189, #207 ) ;
#191 =( LENGTH_UNIT ( ) NAMED_UNIT ( * ) SI_UNIT ( .MILLI., .METRE. ) );
#192 = CARTESIAN_POINT ( 'NONE',  ( 100.0000000000000000, 1.530808498934191600E-016, -1.250000000000000200 ) ) ;
#193 = DIRECTION ( 'NONE',  ( 0.0000000000000000000, 0.0000000000000000000, 1.000000000000000000 ) ) ;
#194 = SURFACE_STYLE_FILL_AREA ( #157 ) ;
#195 = DIRECTION ( 'NONE',  ( 0.0000000000000000000, 0.0000000000000000000, -1.000000000000000000 ) ) ;
#196 = DIRECTION ( 'NONE',  ( 0.0000000000000000000, 0.0000000000000000000, 1.000000000000000000 ) ) ;
#197 = CARTESIAN_POINT ( 'NONE',  ( 105.6568542494924000, 0.0000000000000000000, 0.0000000000000000000 ) ) ;
#198 = FILL_AREA_STYLE ('',( #218 ) ) ;
#199 = FACE_BOUND ( 'NONE', #7, .T. ) ;
#200 =( GEOMETRIC_REPRESENTATION_CONTEXT ( 3 ) GLOBAL_UNCERTAINTY_ASSIGNED_CONTEXT ( ( #150 ) ) GLOBAL_UNIT_ASSIGNED_CONTEXT ( ( #244, #249, #248 ) ) REPRESENTATION_CONTEXT ( 'NONE', 'WORKASPACE' ) );
#201 = DIRECTION ( 'NONE',  ( 0.0000000000000000000, 0.0000000000000000000, 1.000000000000000000 ) ) ;
#202 = DIRECTION ( 'NONE',  ( -1.000000000000000000, -0.0000000000000000000, -0.0000000000000000000 ) ) ;
#203 = COLOUR_RGB ( '',0.2470588235294117800, 0.6470588235294118000, 1.000000000000000000 ) ;
#204 = CARTESIAN_POINT ( 'NONE',  ( 105.6568542494924000, 0.0000000000000000000, 0.0000000000000000000 ) ) ;
#205 = CARTESIAN_POINT ( 'NONE',  ( 0.0000000000000000000, 0.0000000000000000000, 1.250000000000000200 ) ) ;
#206 = CARTESIAN_POINT ( 'NONE',  ( 100.0000000000000000, 0.0000000000000000000, 0.0000000000000000000 ) ) ;
#207 = DIRECTION ( 'NONE',  ( 0.0000000000000000000, 0.0000000000000000000, -1.000000000000000000 ) ) ;
#208 = FACE_OUTER_BOUND ( 'NONE', #134, .T. ) ;
#209 = AXIS2_PLACEMENT_3D ( 'NONE', #263, #178, #196 ) ;
#210 = FILL_AREA_STYLE_COLOUR ( '', #151 ) ;
#211 = FACE_OUTER_BOUND ( 'NONE', #51, .T. ) ;
#212 = CARTESIAN_POINT ( 'NONE',  ( 0.0000000000000000000, 2.449293598294705900E-016, -2.000000000000000000 ) ) ;
#213 =( LENGTH_UNIT ( ) NAMED_UNIT ( * ) SI_UNIT ( .MILLI., .METRE. ) );
#214 = MECHANICAL_DESIGN_GEOMETRIC_PRESENTATION_REPRESENTATION (  '', ( #216 ), #252 ) ;
#215 = PRESENTATION_LAYER_ASSIGNMENT (  '', '', ( #216 ) ) ;
#216 = STYLED_ITEM ( 'NONE', ( #217 ), #90 ) ;
#217 = PRESENTATION_STYLE_ASSIGNMENT (( #221 ) ) ;
#218 = FILL_AREA_STYLE_COLOUR ( '', #259 ) ;
#219 = DIRECTION ( 'NONE',  ( 0.0000000000000000000, 0.0000000000000000000, -1.000000000000000000 ) ) ;
#220 = DIRECTION ( 'NONE',  ( 1.000000000000000000, 0.0000000000000000000, 0.0000000000000000000 ) ) ;
#221 = SURFACE_STYLE_USAGE ( .BOTH. , #232 ) ;
#222 = SURFACE_STYLE_FILL_AREA ( #233 ) ;
#223 = FACE_OUTER_BOUND ( 'NONE', #89, .T. ) ;
#224 = CIRCLE ( 'NONE', #242, 2.000000000000000000 ) ;
#225 = COLOUR_RGB ( '',0.2470588235294117800, 0.6470588235294118000, 1.000000000000000000 ) ;
#226 = AXIS2_PLACEMENT_3D ( 'NONE', #262, #261, #260 ) ;
#227 = PLANE ( 'NONE',  #226 ) ;
#228 = DIRECTION ( 'NONE',  ( 0.0000000000000000000, 0.0000000000000000000, -1.000000000000000000 ) ) ;
#229 = DIRECTION ( 'NONE',  ( 1.000000000000000000, 0.0000000000000000000, 0.0000000000000000000 ) ) ;
#230 = AXIS2_PLACEMENT_3D ( 'NONE', #236, #229, #228 ) ;
#231 = CARTESIAN_POINT ( 'NONE',  ( 100.0000000000000000, 2.449293598294705900E-016, -2.000000000000000000 ) ) ;
#232 = SURFACE_SIDE_STYLE ('',( #222 ) ) ;
#233 = FILL_AREA_STYLE ('',( #235 ) ) ;
#234 = CARTESIAN_POINT ( 'NONE',  ( 100.0000000000000000, 0.0000000000000000000, 2.000000000000000000 ) ) ;
#235 = FILL_AREA_STYLE_COLOUR ( '', #225 ) ;
#236 = CARTESIAN_POINT ( 'NONE',  ( 100.0000000000000000, 0.0000000000000000000, 0.0000000000000000000 ) ) ;
#237 = DIRECTION ( 'NONE',  ( -1.000000000000000000, -0.0000000000000000000, -0.0000000000000000000 ) ) ;
#238 = VECTOR ( 'NONE', #237, 1000.000000000000000 ) ;
#239 = CARTESIAN_POINT ( 'NONE',  ( 105.6568542494924000, 2.449293598294705900E-016, -2.000000000000000000 ) ) ;
#240 = LINE ( 'NONE', #239, #238 ) ;
#241 = CARTESIAN_POINT ( 'NONE',  ( 0.0000000000000000000, 0.0000000000000000000, 0.0000000000000000000 ) ) ;
#242 = AXIS2_PLACEMENT_3D ( 'NONE', #241, #220, #219 ) ;
#243 = CIRCLE ( 'NONE', #230, 2.000000000000000000 ) ;
#244 =( LENGTH_UNIT ( ) NAMED_UNIT ( * ) SI_UNIT ( .MILLI., .METRE. ) );
#245 = MECHANICAL_DESIGN_GEOMETRIC_PRESENTATION_REPRESENTATION (  '', ( #173 ), #200 ) ;
#246 = AXIS2_PLACEMENT_3D ( 'NONE', #204, #202, #201 ) ;
#247 = AXIS2_PLACEMENT_3D ( 'NONE', #183, #181, #195 ) ;
#248 =( NAMED_UNIT ( * ) SI_UNIT ( $, .STERADIAN. ) SOLID_ANGLE_UNIT ( ) );
#249 =( NAMED_UNIT ( * ) PLANE_ANGLE_UNIT ( ) SI_UNIT ( $, .RADIAN. ) );
#250 = SURFACE_STYLE_FILL_AREA ( #198 ) ;
#251 = CARTESIAN_POINT ( 'NONE',  ( 0.0000000000000000000, 1.530808498934191600E-016, -1.250000000000000200 ) ) ;
#252 =( GEOMETRIC_REPRESENTATION_CONTEXT ( 3 ) GLOBAL_UNCERTAINTY_ASSIGNED_CONTEXT ( ( #253 ) ) GLOBAL_UNIT_ASSIGNED_CONTEXT ( ( #213, #255, #254 ) ) REPRESENTATION_CONTEXT ( 'NONE', 'WORKASPACE' ) );
#253 = UNCERTAINTY_MEASURE_WITH_UNIT (LENGTH_MEASURE( 1.000000000000000100E-005 ), #213, 'distance_accuracy_value', 'NONE');
#254 =( NAMED_UNIT ( * ) SI_UNIT ( $, .STERADIAN. ) SOLID_ANGLE_UNIT ( ) );
#255 =( NAMED_UNIT ( * ) PLANE_ANGLE_UNIT ( ) SI_UNIT ( $, .RADIAN. ) );
#256 = PRESENTATION_STYLE_ASSIGNMENT (( #257 ) ) ;
#257 = SURFACE_STYLE_USAGE ( .BOTH. , #258 ) ;
#258 = SURFACE_SIDE_STYLE ('',( #250 ) ) ;
#259 = COLOUR_RGB ( '',0.0000000000000000000, 0.5843137254901961100, 0.9058823529411764700 ) ;
#260 = DIRECTION ( 'NONE',  ( 0.0000000000000000000, 0.0000000000000000000, -1.000000000000000000 ) ) ;
#261 = DIRECTION ( 'NONE',  ( 1.000000000000000000, 0.0000000000000000000, 0.0000000000000000000 ) ) ;
#262 = CARTESIAN_POINT ( 'NONE',  ( 100.0000000000000000, 0.0000000000000000000, 0.0000000000000000000 ) ) ;
#263 = CARTESIAN_POINT ( 'NONE',  ( 105.6568542494924000, 0.0000000000000000000, 0.0000000000000000000 ) ) ;
#264 = AXIS2_PLACEMENT_3D ( 'NONE', #206, #163, #158 ) ;
#265 = MECHANICAL_DESIGN_GEOMETRIC_PRESENTATION_REPRESENTATION (  '', ( #267 ), #162 ) ;
#266 = PRESENTATION_LAYER_ASSIGNMENT (  '', '', ( #267 ) ) ;
#267 = STYLED_ITEM ( 'NONE', ( #159 ), #55 ) ;
#268 = DIRECTION ( 'NONE',  ( 1.000000000000000000, 0.0000000000000000000, 0.0000000000000000000 ) ) ;
#269 = DIRECTION ( 'NONE',  ( 0.0000000000000000000, 0.0000000000000000000, 1.000000000000000000 ) ) ;
#270 = CARTESIAN_POINT ( 'NONE',  ( 0.0000000000000000000, 0.0000000000000000000, 0.0000000000000000000 ) ) ;
#271 = AXIS2_PLACEMENT_3D ( 'NONE', #270, #269, #268 ) ;
#272 = ADVANCED_BREP_SHAPE_REPRESENTATION ( '', ( #139, #271 ), #321 ) ;
#273 =( GEOMETRIC_REPRESENTATION_CONTEXT ( 3 ) GLOBAL_UNCERTAINTY_ASSIGNED_CONTEXT ( ( #339 ) ) GLOBAL_UNIT_ASSIGNED_CONTEXT ( ( #337, #341, #340 ) ) REPRESENTATION_CONTEXT ( 'NONE', 'WORKASPACE' ) );
#274 = UNCERTAINTY_MEASURE_WITH_UNIT (LENGTH_MEASURE( 1.000000000000000100E-005 ), #290, 'distance_accuracy_value', 'NONE');
#275 = PRESENTATION_LAYER_ASSIGNMENT (  '', '', ( #276 ) ) ;
#276 = STYLED_ITEM ( 'NONE', ( #277 ), #272 ) ;
#277 = PRESENTATION_STYLE_ASSIGNMENT (( #278 ) ) ;
#278 = SURFACE_STYLE_USAGE ( .BOTH. , #323 ) ;
#279 = SURFACE_STYLE_FILL_AREA ( #324 ) ;
#280 = COLOUR_RGB ( '',0.2470588235294117800, 0.6470588235294118000, 1.000000000000000000 ) ;
#281 = PRODUCT_DEFINITION_SHAPE ( 'NONE', 'NONE',  #320 ) ;
#282 = SHAPE_REPRESENTATION_RELATIONSHIP ( 'NONE' , 'NONE' ,  #284, #272 ) ;
#283 = CARTESIAN_POINT ( 'NONE',  ( 0.0000000000000000000, 0.0000000000000000000, 0.0000000000000000000 ) ) ;
#284 = SHAPE_REPRESENTATION ( 'TU0425BU-20.step_TU3076 Tube_0425BU', ( #271 ), #321 ) ;
#285 = CARTESIAN_POINT ( 'NONE',  ( 0.0000000000000000000, 0.0000000000000000000, 0.0000000000000000000 ) ) ;
#286 = AXIS2_PLACEMENT_3D ( 'NONE', #285, #308, #307 ) ;
#287 = SHAPE_REPRESENTATION ( 'TU0425BU-20.step', ( #322, #306 ), #313 ) ;
#288 = DIRECTION ( 'NONE',  ( 1.000000000000000000, 0.0000000000000000000, 0.0000000000000000000 ) ) ;
#289 = DIRECTION ( 'NONE',  ( 0.0000000000000000000, 0.0000000000000000000, 1.000000000000000000 ) ) ;
#290 =( LENGTH_UNIT ( ) NAMED_UNIT ( * ) SI_UNIT ( .MILLI., .METRE. ) );
#291 =( NAMED_UNIT ( * ) PLANE_ANGLE_UNIT ( ) SI_UNIT ( $, .RADIAN. ) );
#292 =( NAMED_UNIT ( * ) SI_UNIT ( $, .STERADIAN. ) SOLID_ANGLE_UNIT ( ) );
#293 = PRODUCT_DEFINITION_SHAPE ( 'NONE', 'NONE',  #294 ) ;
#294 = PRODUCT_DEFINITION ( 'UNKNOWN', '', #318, #295 ) ;
#295 = PRODUCT_DEFINITION_CONTEXT ( 'detailed design', #297, 'design' ) ;
#296 = APPLICATION_PROTOCOL_DEFINITION ( 'draft international standard', 'automotive_design', 1998, #297 ) ;
#297 = APPLICATION_CONTEXT ( 'automotive_design' ) ;
#298 =( REPRESENTATION_RELATIONSHIP ('NONE','NONE', #287, #284 ) REPRESENTATION_RELATIONSHIP_WITH_TRANSFORMATION ( #312 )SHAPE_REPRESENTATION_RELATIONSHIP( ) );
#299 = PRODUCT ( 'TU0425BU-20.step_TU3076 Tube_0425BU', 'TU0425BU-20.step_TU3076 Tube_0425BU', '', ( #300 ) ) ;
#300 = PRODUCT_CONTEXT ( 'NONE', #311, 'mechanical' ) ;
#301 = APPLICATION_PROTOCOL_DEFINITION ( 'draft international standard', 'automotive_design', 1998, #311 ) ;
#302 =( LENGTH_UNIT ( ) NAMED_UNIT ( * ) SI_UNIT ( .MILLI., .METRE. ) );
#303 = DIRECTION ( 'NONE',  ( 1.000000000000000000, 0.0000000000000000000, 0.0000000000000000000 ) ) ;
#304 = DIRECTION ( 'NONE',  ( 0.0000000000000000000, 0.0000000000000000000, 1.000000000000000000 ) ) ;
#305 = CARTESIAN_POINT ( 'NONE',  ( 0.0000000000000000000, 0.0000000000000000000, 0.0000000000000000000 ) ) ;
#306 = AXIS2_PLACEMENT_3D ( 'NONE', #305, #304, #303 ) ;
#307 = DIRECTION ( 'NONE',  ( 1.000000000000000000, 0.0000000000000000000, 0.0000000000000000000 ) ) ;
#308 = DIRECTION ( 'NONE',  ( 0.0000000000000000000, 0.0000000000000000000, 1.000000000000000000 ) ) ;
#309 = APPLICATION_CONTEXT ( 'automotive_design' ) ;
#310 = SHAPE_DEFINITION_REPRESENTATION ( #293, #284 ) ;
#311 = APPLICATION_CONTEXT ( 'automotive_design' ) ;
#312 = ITEM_DEFINED_TRANSFORMATION ( 'NONE', 'NONE', #306,  #271 ) ;
#313 =( GEOMETRIC_REPRESENTATION_CONTEXT ( 3 ) GLOBAL_UNCERTAINTY_ASSIGNED_CONTEXT ( ( #314 ) ) GLOBAL_UNIT_ASSIGNED_CONTEXT ( ( #302, #316, #315 ) ) REPRESENTATION_CONTEXT ( 'NONE', 'WORKASPACE' ) );
#314 = UNCERTAINTY_MEASURE_WITH_UNIT (LENGTH_MEASURE( 1.000000000000000100E-005 ), #302, 'distance_accuracy_value', 'NONE');
#315 =( NAMED_UNIT ( * ) SI_UNIT ( $, .STERADIAN. ) SOLID_ANGLE_UNIT ( ) );
#316 =( NAMED_UNIT ( * ) PLANE_ANGLE_UNIT ( ) SI_UNIT ( $, .RADIAN. ) );
#317 = PRODUCT_RELATED_PRODUCT_CATEGORY ( 'part', '', ( #299 ) ) ;
#318 = PRODUCT_DEFINITION_FORMATION_WITH_SPECIFIED_SOURCE ( 'ANY', '', #299, .NOT_KNOWN. ) ;
#319 = CONTEXT_DEPENDENT_SHAPE_REPRESENTATION ( #298, #281 ) ;
#320 = NEXT_ASSEMBLY_USAGE_OCCURRENCE ( 'NAUO1', ' ', ' ', #330, #294, $ ) ;
#321 =( GEOMETRIC_REPRESENTATION_CONTEXT ( 3 ) GLOBAL_UNCERTAINTY_ASSIGNED_CONTEXT ( ( #274 ) ) GLOBAL_UNIT_ASSIGNED_CONTEXT ( ( #290, #291, #292 ) ) REPRESENTATION_CONTEXT ( 'NONE', 'WORKASPACE' ) );
#322 = AXIS2_PLACEMENT_3D ( 'NONE', #283, #289, #288 ) ;
#323 = SURFACE_SIDE_STYLE ('',( #279 ) ) ;
#324 = FILL_AREA_STYLE ('',( #325 ) ) ;
#325 = FILL_AREA_STYLE_COLOUR ( '', #280 ) ;
#326 = PRODUCT_DEFINITION_SHAPE ( 'NONE', 'NONE',  #330 ) ;
#327 = PRODUCT_RELATED_PRODUCT_CATEGORY ( 'part', '', ( #334 ) ) ;
#328 = PRODUCT_DEFINITION_FORMATION_WITH_SPECIFIED_SOURCE ( 'ANY', '', #334, .NOT_KNOWN. ) ;
#329 = SHAPE_DEFINITION_REPRESENTATION ( #326, #287 ) ;
#330 = PRODUCT_DEFINITION ( 'UNKNOWN', '', #328, #331 ) ;
#331 = PRODUCT_DEFINITION_CONTEXT ( 'detailed design', #333, 'design' ) ;
#332 = APPLICATION_PROTOCOL_DEFINITION ( 'draft international standard', 'automotive_design', 1998, #333 ) ;
#333 = APPLICATION_CONTEXT ( 'automotive_design' ) ;
#334 = PRODUCT ( 'TU0425BU-20.step', 'TU0425BU-20.step', '', ( #335 ) ) ;
#335 = PRODUCT_CONTEXT ( 'NONE', #309, 'mechanical' ) ;
#336 = APPLICATION_PROTOCOL_DEFINITION ( 'draft international standard', 'automotive_design', 1998, #309 ) ;
#337 =( LENGTH_UNIT ( ) NAMED_UNIT ( * ) SI_UNIT ( .MILLI., .METRE. ) );
#338 = MECHANICAL_DESIGN_GEOMETRIC_PRESENTATION_REPRESENTATION (  '', ( #276 ), #273 ) ;
#339 = UNCERTAINTY_MEASURE_WITH_UNIT (LENGTH_MEASURE( 1.000000000000000100E-005 ), #337, 'distance_accuracy_value', 'NONE');
#340 =( NAMED_UNIT ( * ) SI_UNIT ( $, .STERADIAN. ) SOLID_ANGLE_UNIT ( ) );
#341 =( NAMED_UNIT ( * ) PLANE_ANGLE_UNIT ( ) SI_UNIT ( $, .RADIAN. ) );
ENDSEC;
END-ISO-10303-21;
