ISO-10303-21;
HEADER;
FILE_DESCRIPTION (( 'STEP AP214' ),
    '1' );
FILE_NAME ('TU0604BU-100.step.step',
    '2011-07-05T10:33:43',
    ( 'SysAdmin' ),
    ( 'SolidWorks' ),
    'SwSTEP 2.0',
    'SolidWorks 2011',
    '' );
FILE_SCHEMA (( 'AUTOMOTIVE_DESIGN' ));
ENDSEC;

DATA;
#1 = ADVANCED_FACE ( 'NONE', ( #131, #90 ), #172, .T. ) ;
#2 = EDGE_CURVE ( 'NONE', #137, #100, #52, .T. ) ;
#3 = EDGE_CURVE ( 'NONE', #132, #147, #113, .T. ) ;
#4 = EDGE_CURVE ( 'NONE', #94, #132, #55, .T. ) ;
#5 =( GEOMETRIC_REPRESENTATION_CONTEXT ( 3 ) GLOBAL_UNCERTAINTY_ASSIGNED_CONTEXT ( ( #160 ) ) GLOBAL_UNIT_ASSIGNED_CONTEXT ( ( #191, #250, #179 ) ) REPRESENTATION_CONTEXT ( 'NONE', 'WORKASPACE' ) );
#6 = ADVANCED_FACE ( 'NONE', ( #112 ), #97, .T. ) ;
#7 = EDGE_CURVE ( 'NONE', #132, #94, #50, .T. ) ;
#8 =( GEOMETRIC_REPRESENTATION_CONTEXT ( 3 ) GLOBAL_UNCERTAINTY_ASSIGNED_CONTEXT ( ( #169 ) ) GLOBAL_UNIT_ASSIGNED_CONTEXT ( ( #234, #225, #277 ) ) REPRESENTATION_CONTEXT ( 'NONE', 'WORKASPACE' ) );
#9 = EDGE_CURVE ( 'NONE', #94, #335, #99, .T. ) ;
#10 = COLOUR_RGB ( '',0.2470588235294117800, 0.6470588235294118000, 1.000000000000000000 ) ;
#11 = COLOUR_RGB ( '',0.2470588235294117800, 0.6470588235294118000, 1.000000000000000000 ) ;
#12 = ADVANCED_FACE ( 'NONE', ( #92 ), #140, .F. ) ;
#13 =( GEOMETRIC_REPRESENTATION_CONTEXT ( 3 ) GLOBAL_UNCERTAINTY_ASSIGNED_CONTEXT ( ( #159 ) ) GLOBAL_UNIT_ASSIGNED_CONTEXT ( ( #228, #202, #249 ) ) REPRESENTATION_CONTEXT ( 'NONE', 'WORKASPACE' ) );
#14 = COLOUR_RGB ( '',0.2470588235294117800, 0.6470588235294118000, 1.000000000000000000 ) ;
#15 = ADVANCED_FACE ( 'NONE', ( #130, #95 ), #213, .F. ) ;
#16 = EDGE_CURVE ( 'NONE', #147, #335, #71, .T. ) ;
#17 = EDGE_CURVE ( 'NONE', #335, #147, #42, .T. ) ;
#18 = ADVANCED_FACE ( 'NONE', ( #134 ), #124, .T. ) ;
#19 = ADVANCED_FACE ( 'NONE', ( #104 ), #89, .F. ) ;
#20 = EDGE_CURVE ( 'NONE', #93, #110, #73, .T. ) ;
#21 =( GEOMETRIC_REPRESENTATION_CONTEXT ( 3 ) GLOBAL_UNCERTAINTY_ASSIGNED_CONTEXT ( ( #170 ) ) GLOBAL_UNIT_ASSIGNED_CONTEXT ( ( #251, #245, #282 ) ) REPRESENTATION_CONTEXT ( 'NONE', 'WORKASPACE' ) );
#22 = EDGE_CURVE ( 'NONE', #110, #137, #149, .T. ) ;
#23 = EDGE_CURVE ( 'NONE', #110, #93, #49, .T. ) ;
#24 = EDGE_CURVE ( 'NONE', #100, #137, #44, .T. ) ;
#25 = COLOUR_RGB ( '',0.2470588235294117800, 0.6470588235294118000, 1.000000000000000000 ) ;
#26 =( GEOMETRIC_REPRESENTATION_CONTEXT ( 3 ) GLOBAL_UNCERTAINTY_ASSIGNED_CONTEXT ( ( #168 ) ) GLOBAL_UNIT_ASSIGNED_CONTEXT ( ( #271, #180, #255 ) ) REPRESENTATION_CONTEXT ( 'NONE', 'WORKASPACE' ) );
#27 =( GEOMETRIC_REPRESENTATION_CONTEXT ( 3 ) GLOBAL_UNCERTAINTY_ASSIGNED_CONTEXT ( ( #163 ) ) GLOBAL_UNIT_ASSIGNED_CONTEXT ( ( #260, #286, #309 ) ) REPRESENTATION_CONTEXT ( 'NONE', 'WORKASPACE' ) );
#28 = EDGE_CURVE ( 'NONE', #93, #100, #139, .T. ) ;
#29 = COLOUR_RGB ( '',0.2470588235294117800, 0.6470588235294118000, 1.000000000000000000 ) ;
#30 =( GEOMETRIC_REPRESENTATION_CONTEXT ( 3 ) GLOBAL_UNCERTAINTY_ASSIGNED_CONTEXT ( ( #164 ) ) GLOBAL_UNIT_ASSIGNED_CONTEXT ( ( #184, #269, #283 ) ) REPRESENTATION_CONTEXT ( 'NONE', 'WORKASPACE' ) );
#31 = COLOUR_RGB ( '',0.2470588235294117800, 0.6470588235294118000, 1.000000000000000000 ) ;
#32 =( GEOMETRIC_REPRESENTATION_CONTEXT ( 3 ) GLOBAL_UNCERTAINTY_ASSIGNED_CONTEXT ( ( #166 ) ) GLOBAL_UNIT_ASSIGNED_CONTEXT ( ( #216, #305, #253 ) ) REPRESENTATION_CONTEXT ( 'NONE', 'WORKASPACE' ) );
#33 =( GEOMETRIC_REPRESENTATION_CONTEXT ( 3 ) GLOBAL_UNCERTAINTY_ASSIGNED_CONTEXT ( ( #162 ) ) GLOBAL_UNIT_ASSIGNED_CONTEXT ( ( #198, #208, #233 ) ) REPRESENTATION_CONTEXT ( 'NONE', 'WORKASPACE' ) );
#34 = COLOUR_RGB ( '',0.2470588235294117800, 0.6470588235294118000, 1.000000000000000000 ) ;
#35 =( GEOMETRIC_REPRESENTATION_CONTEXT ( 3 ) GLOBAL_UNCERTAINTY_ASSIGNED_CONTEXT ( ( #167 ) ) GLOBAL_UNIT_ASSIGNED_CONTEXT ( ( #187, #262, #284 ) ) REPRESENTATION_CONTEXT ( 'NONE', 'WORKASPACE' ) );
#36 = COLOUR_RGB ( '',0.0000000000000000000, 0.5843137254901961100, 0.9058823529411764700 ) ;
#37 = MECHANICAL_DESIGN_GEOMETRIC_PRESENTATION_REPRESENTATION (  '', ( #122 ), #30 ) ;
#38 = PRESENTATION_LAYER_ASSIGNMENT (  '', '', ( #122 ) ) ;
#39 = AXIS2_PLACEMENT_3D ( 'NONE', #223, #288, #238 ) ;
#40 = AXIS2_PLACEMENT_3D ( 'NONE', #267, #254, #193 ) ;
#41 = AXIS2_PLACEMENT_3D ( 'NONE', #276, #182, #209 ) ;
#42 = CIRCLE ( 'NONE', #74, 2.000000000000000000 ) ;
#43 = MECHANICAL_DESIGN_GEOMETRIC_PRESENTATION_REPRESENTATION (  '', ( #98 ), #35 ) ;
#44 = CIRCLE ( 'NONE', #53, 3.000000000000000400 ) ;
#45 = AXIS2_PLACEMENT_3D ( 'NONE', #311, #189, #312 ) ;
#46 = VECTOR ( 'NONE', #248, 1000.000000000000000 ) ;
#47 = PRESENTATION_LAYER_ASSIGNMENT (  '', '', ( #98 ) ) ;
#48 = AXIS2_PLACEMENT_3D ( 'NONE', #174, #294, #221 ) ;
#49 = CIRCLE ( 'NONE', #66, 3.000000000000000400 ) ;
#50 = CIRCLE ( 'NONE', #68, 2.000000000000000000 ) ;
#51 = AXIS2_PLACEMENT_3D ( 'NONE', #256, #232, #315 ) ;
#52 = CIRCLE ( 'NONE', #80, 3.000000000000000400 ) ;
#53 = AXIS2_PLACEMENT_3D ( 'NONE', #279, #235, #186 ) ;
#54 = MECHANICAL_DESIGN_GEOMETRIC_PRESENTATION_REPRESENTATION (  '', ( #143 ), #26 ) ;
#55 = CIRCLE ( 'NONE', #82, 2.000000000000000000 ) ;
#56 = PRODUCT_DEFINITION ( 'UNKNOWN', '', #81, #154 ) ;
#57 = PRESENTATION_LAYER_ASSIGNMENT (  '', '', ( #121 ) ) ;
#58 = MECHANICAL_DESIGN_GEOMETRIC_PRESENTATION_REPRESENTATION (  '', ( #91 ), #8 ) ;
#59 = PRESENTATION_LAYER_ASSIGNMENT (  '', '', ( #114 ) ) ;
#60 = PRESENTATION_LAYER_ASSIGNMENT (  '', '', ( #136 ) ) ;
#61 = AXIS2_PLACEMENT_3D ( 'NONE', #226, #219, #195 ) ;
#62 = PRODUCT_RELATED_PRODUCT_CATEGORY ( 'part', '', ( #165 ) ) ;
#63 = AXIS2_PLACEMENT_3D ( 'NONE', #178, #302, #274 ) ;
#64 = VECTOR ( 'NONE', #212, 1000.000000000000000 ) ;
#65 = PRESENTATION_LAYER_ASSIGNMENT (  '', '', ( #91 ) ) ;
#66 = AXIS2_PLACEMENT_3D ( 'NONE', #190, #299, #199 ) ;
#67 = MECHANICAL_DESIGN_GEOMETRIC_PRESENTATION_REPRESENTATION (  '', ( #136 ), #27 ) ;
#68 = AXIS2_PLACEMENT_3D ( 'NONE', #196, #308, #236 ) ;
#69 = MECHANICAL_DESIGN_GEOMETRIC_PRESENTATION_REPRESENTATION (  '', ( #117 ), #5 ) ;
#70 = PRESENTATION_LAYER_ASSIGNMENT (  '', '', ( #143 ) ) ;
#71 = CIRCLE ( 'NONE', #75, 2.000000000000000000 ) ;
#72 = MECHANICAL_DESIGN_GEOMETRIC_PRESENTATION_REPRESENTATION (  '', ( #121 ), #13 ) ;
#73 = CIRCLE ( 'NONE', #48, 3.000000000000000400 ) ;
#74 = AXIS2_PLACEMENT_3D ( 'NONE', #218, #210, #244 ) ;
#75 = AXIS2_PLACEMENT_3D ( 'NONE', #297, #229, #231 ) ;
#76 = PRESENTATION_LAYER_ASSIGNMENT (  '', '', ( #117 ) ) ;
#77 = VECTOR ( 'NONE', #295, 1000.000000000000000 ) ;
#78 = PRODUCT_DEFINITION ( 'UNKNOWN', '', #83, #157 ) ;
#79 = MECHANICAL_DESIGN_GEOMETRIC_PRESENTATION_REPRESENTATION (  '', ( #114 ), #33 ) ;
#80 = AXIS2_PLACEMENT_3D ( 'NONE', #272, #289, #239 ) ;
#81 = PRODUCT_DEFINITION_FORMATION_WITH_SPECIFIED_SOURCE ( 'ANY', '', #161, .NOT_KNOWN. ) ;
#82 = AXIS2_PLACEMENT_3D ( 'NONE', #310, #201, #224 ) ;
#83 = PRODUCT_DEFINITION_FORMATION_WITH_SPECIFIED_SOURCE ( 'ANY', '', #165, .NOT_KNOWN. ) ;
#84 = VECTOR ( 'NONE', #258, 1000.000000000000000 ) ;
#85 = PRODUCT_RELATED_PRODUCT_CATEGORY ( 'part', '', ( #161 ) ) ;
#86 = AXIS2_PLACEMENT_3D ( 'NONE', #185, #290, #314 ) ;
#87 = AXIS2_PLACEMENT_3D ( 'NONE', #266, #278, #261 ) ;
#88 = AXIS2_PLACEMENT_3D ( 'NONE', #207, #303, #264 ) ;
#89 = CYLINDRICAL_SURFACE ( 'NONE', #40, 2.000000000000000000 ) ;
#90 = FACE_OUTER_BOUND ( 'NONE', #142, .T. ) ;
#91 = STYLED_ITEM ( 'NONE', ( #133 ), #1 ) ;
#92 = FACE_OUTER_BOUND ( 'NONE', #129, .T. ) ;
#93 = VERTEX_POINT ( 'NONE', #197 ) ;
#94 = VERTEX_POINT ( 'NONE', #204 ) ;
#95 = FACE_BOUND ( 'NONE', #145, .T. ) ;
#96 = PRESENTATION_STYLE_ASSIGNMENT (( #203 ) ) ;
#97 = CYLINDRICAL_SURFACE ( 'NONE', #61, 3.000000000000000400 ) ;
#98 = STYLED_ITEM ( 'NONE', ( #96 ), #341 ) ;
#99 = LINE ( 'NONE', #211, #64 ) ;
#100 = VERTEX_POINT ( 'NONE', #291 ) ;
#101 = PRESENTATION_STYLE_ASSIGNMENT (( #242 ) ) ;
#102 = SURFACE_STYLE_FILL_AREA ( #257 ) ;
#103 = SURFACE_STYLE_FILL_AREA ( #292 ) ;
#104 = FACE_OUTER_BOUND ( 'NONE', #119, .T. ) ;
#105 = EDGE_LOOP ( 'NONE', ( #320, #322, #321, #340 ) ) ;
#106 = PRESENTATION_STYLE_ASSIGNMENT (( #206 ) ) ;
#107 = EDGE_LOOP ( 'NONE', ( #318, #334 ) ) ;
#108 = PRESENTATION_STYLE_ASSIGNMENT (( #287 ) ) ;
#109 = ITEM_DEFINED_TRANSFORMATION ( 'NONE', 'NONE', #45,  #41 ) ;
#110 = VERTEX_POINT ( 'NONE', #306 ) ;
#111 = PRESENTATION_STYLE_ASSIGNMENT (( #241 ) ) ;
#112 = FACE_OUTER_BOUND ( 'NONE', #135, .T. ) ;
#113 = LINE ( 'NONE', #215, #84 ) ;
#114 = STYLED_ITEM ( 'NONE', ( #108 ), #158 ) ;
#115 = SURFACE_STYLE_FILL_AREA ( #192 ) ;
#116 = SURFACE_STYLE_FILL_AREA ( #175 ) ;
#117 = STYLED_ITEM ( 'NONE', ( #111 ), #15 ) ;
#118 = SHAPE_REPRESENTATION_RELATIONSHIP ( 'NONE' , 'NONE' ,  #152, #158 ) ;
#119 = EDGE_LOOP ( 'NONE', ( #319, #339, #317, #338 ) ) ;
#120 = SURFACE_STYLE_FILL_AREA ( #281 ) ;
#121 = STYLED_ITEM ( 'NONE', ( #106 ), #6 ) ;
#122 = STYLED_ITEM ( 'NONE', ( #141 ), #19 ) ;
#123 = SHAPE_DEFINITION_REPRESENTATION ( #155, #151 ) ;
#124 = CYLINDRICAL_SURFACE ( 'NONE', #39, 3.000000000000000400 ) ;
#125 = CONTEXT_DEPENDENT_SHAPE_REPRESENTATION ( #181, #153 ) ;
#126 = SURFACE_STYLE_FILL_AREA ( #243 ) ;
#127 = SURFACE_STYLE_FILL_AREA ( #246 ) ;
#128 = SHAPE_DEFINITION_REPRESENTATION ( #156, #152 ) ;
#129 = EDGE_LOOP ( 'NONE', ( #332, #337, #329, #325 ) ) ;
#130 = FACE_OUTER_BOUND ( 'NONE', #148, .T. ) ;
#131 = FACE_BOUND ( 'NONE', #107, .T. ) ;
#132 = VERTEX_POINT ( 'NONE', #268 ) ;
#133 = PRESENTATION_STYLE_ASSIGNMENT (( #259 ) ) ;
#134 = FACE_OUTER_BOUND ( 'NONE', #105, .T. ) ;
#135 = EDGE_LOOP ( 'NONE', ( #331, #327, #336, #333 ) ) ;
#136 = STYLED_ITEM ( 'NONE', ( #150 ), #12 ) ;
#137 = VERTEX_POINT ( 'NONE', #188 ) ;
#138 = SURFACE_STYLE_FILL_AREA ( #237 ) ;
#139 = LINE ( 'NONE', #252, #77 ) ;
#140 = CYLINDRICAL_SURFACE ( 'NONE', #86, 2.000000000000000000 ) ;
#141 = PRESENTATION_STYLE_ASSIGNMENT (( #194 ) ) ;
#142 = EDGE_LOOP ( 'NONE', ( #330, #316 ) ) ;
#143 = STYLED_ITEM ( 'NONE', ( #101 ), #18 ) ;
#144 = NEXT_ASSEMBLY_USAGE_OCCURRENCE ( 'NAUO1', ' ', ' ', #78, #56, $ ) ;
#145 = EDGE_LOOP ( 'NONE', ( #328, #324 ) ) ;
#146 = CLOSED_SHELL ( 'NONE', ( #12, #6, #18, #15, #19, #1 ) ) ;
#147 = VERTEX_POINT ( 'NONE', #183 ) ;
#148 = EDGE_LOOP ( 'NONE', ( #326, #323 ) ) ;
#149 = LINE ( 'NONE', #280, #46 ) ;
#150 = PRESENTATION_STYLE_ASSIGNMENT (( #285 ) ) ;
#151 = SHAPE_REPRESENTATION ( 'TU0604BU-100.step', ( #63, #45 ), #21 ) ;
#152 = SHAPE_REPRESENTATION ( 'TU0604BU-100.step_TU3076 Tube_0604BU', ( #41 ), #32 ) ;
#153 = PRODUCT_DEFINITION_SHAPE ( 'NONE', 'NONE',  #144 ) ;
#154 = PRODUCT_DEFINITION_CONTEXT ( 'detailed design', #300, 'design' ) ;
#155 = PRODUCT_DEFINITION_SHAPE ( 'NONE', 'NONE',  #78 ) ;
#156 = PRODUCT_DEFINITION_SHAPE ( 'NONE', 'NONE',  #56 ) ;
#157 = PRODUCT_DEFINITION_CONTEXT ( 'detailed design', #301, 'design' ) ;
#158 = ADVANCED_BREP_SHAPE_REPRESENTATION ( '', ( #341, #41 ), #32 ) ;
#159 = UNCERTAINTY_MEASURE_WITH_UNIT (LENGTH_MEASURE( 1.000000000000000100E-005 ), #228, 'distance_accuracy_value', 'NONE');
#160 = UNCERTAINTY_MEASURE_WITH_UNIT (LENGTH_MEASURE( 1.000000000000000100E-005 ), #191, 'distance_accuracy_value', 'NONE');
#161 = PRODUCT ( 'TU0604BU-100.step_TU3076 Tube_0604BU', 'TU0604BU-100.step_TU3076 Tube_0604BU', '', ( #227 ) ) ;
#162 = UNCERTAINTY_MEASURE_WITH_UNIT (LENGTH_MEASURE( 1.000000000000000100E-005 ), #198, 'distance_accuracy_value', 'NONE');
#163 = UNCERTAINTY_MEASURE_WITH_UNIT (LENGTH_MEASURE( 1.000000000000000100E-005 ), #260, 'distance_accuracy_value', 'NONE');
#164 = UNCERTAINTY_MEASURE_WITH_UNIT (LENGTH_MEASURE( 1.000000000000000100E-005 ), #184, 'distance_accuracy_value', 'NONE');
#165 = PRODUCT ( 'TU0604BU-100.step', 'TU0604BU-100.step', '', ( #313 ) ) ;
#166 = UNCERTAINTY_MEASURE_WITH_UNIT (LENGTH_MEASURE( 1.000000000000000100E-005 ), #216, 'distance_accuracy_value', 'NONE');
#167 = UNCERTAINTY_MEASURE_WITH_UNIT (LENGTH_MEASURE( 1.000000000000000100E-005 ), #187, 'distance_accuracy_value', 'NONE');
#168 = UNCERTAINTY_MEASURE_WITH_UNIT (LENGTH_MEASURE( 1.000000000000000100E-005 ), #271, 'distance_accuracy_value', 'NONE');
#169 = UNCERTAINTY_MEASURE_WITH_UNIT (LENGTH_MEASURE( 1.000000000000000100E-005 ), #234, 'distance_accuracy_value', 'NONE');
#170 = UNCERTAINTY_MEASURE_WITH_UNIT (LENGTH_MEASURE( 1.000000000000000100E-005 ), #251, 'distance_accuracy_value', 'NONE');
#171 = APPLICATION_PROTOCOL_DEFINITION ( 'draft international standard', 'automotive_design', 1998, #240 ) ;
#172 = PLANE ( 'NONE',  #87 ) ;
#173 = FILL_AREA_STYLE_COLOUR ( '', #11 ) ;
#174 = CARTESIAN_POINT ( 'NONE',  ( 100.0000000000000000, 0.0000000000000000000, 0.0000000000000000000 ) ) ;
#175 = FILL_AREA_STYLE ('',( #263 ) ) ;
#176 = APPLICATION_PROTOCOL_DEFINITION ( 'draft international standard', 'automotive_design', 1998, #214 ) ;
#177 = SURFACE_SIDE_STYLE ('',( #103 ) ) ;
#178 = CARTESIAN_POINT ( 'NONE',  ( 0.0000000000000000000, 0.0000000000000000000, 0.0000000000000000000 ) ) ;
#179 =( NAMED_UNIT ( * ) SI_UNIT ( $, .STERADIAN. ) SOLID_ANGLE_UNIT ( ) );
#180 =( NAMED_UNIT ( * ) PLANE_ANGLE_UNIT ( ) SI_UNIT ( $, .RADIAN. ) );
#181 =( REPRESENTATION_RELATIONSHIP ('NONE','NONE', #151, #152 ) REPRESENTATION_RELATIONSHIP_WITH_TRANSFORMATION ( #109 )SHAPE_REPRESENTATION_RELATIONSHIP( ) );
#182 = DIRECTION ( 'NONE',  ( 0.0000000000000000000, 0.0000000000000000000, 1.000000000000000000 ) ) ;
#183 = CARTESIAN_POINT ( 'NONE',  ( 0.0000000000000000000, 2.449293598294706400E-016, -2.000000000000000000 ) ) ;
#184 =( LENGTH_UNIT ( ) NAMED_UNIT ( * ) SI_UNIT ( .MILLI., .METRE. ) );
#185 = CARTESIAN_POINT ( 'NONE',  ( 108.4852813742385700, 0.0000000000000000000, 0.0000000000000000000 ) ) ;
#186 = DIRECTION ( 'NONE',  ( 0.0000000000000000000, 0.0000000000000000000, -1.000000000000000000 ) ) ;
#187 =( LENGTH_UNIT ( ) NAMED_UNIT ( * ) SI_UNIT ( .MILLI., .METRE. ) );
#188 = CARTESIAN_POINT ( 'NONE',  ( 0.0000000000000000000, 3.673940397442060400E-016, -3.000000000000000400 ) ) ;
#189 = DIRECTION ( 'NONE',  ( 0.0000000000000000000, 0.0000000000000000000, 1.000000000000000000 ) ) ;
#190 = CARTESIAN_POINT ( 'NONE',  ( 100.0000000000000000, 0.0000000000000000000, 0.0000000000000000000 ) ) ;
#191 =( LENGTH_UNIT ( ) NAMED_UNIT ( * ) SI_UNIT ( .MILLI., .METRE. ) );
#192 = FILL_AREA_STYLE ('',( #200 ) ) ;
#193 = DIRECTION ( 'NONE',  ( 0.0000000000000000000, 0.0000000000000000000, 1.000000000000000000 ) ) ;
#194 = SURFACE_STYLE_USAGE ( .BOTH. , #275 ) ;
#195 = DIRECTION ( 'NONE',  ( 0.0000000000000000000, 0.0000000000000000000, 1.000000000000000000 ) ) ;
#196 = CARTESIAN_POINT ( 'NONE',  ( 100.0000000000000000, 0.0000000000000000000, 0.0000000000000000000 ) ) ;
#197 = CARTESIAN_POINT ( 'NONE',  ( 100.0000000000000000, 0.0000000000000000000, 3.000000000000000400 ) ) ;
#198 =( LENGTH_UNIT ( ) NAMED_UNIT ( * ) SI_UNIT ( .MILLI., .METRE. ) );
#199 = DIRECTION ( 'NONE',  ( 0.0000000000000000000, 0.0000000000000000000, -1.000000000000000000 ) ) ;
#200 = FILL_AREA_STYLE_COLOUR ( '', #36 ) ;
#201 = DIRECTION ( 'NONE',  ( 1.000000000000000000, 0.0000000000000000000, 0.0000000000000000000 ) ) ;
#202 =( NAMED_UNIT ( * ) PLANE_ANGLE_UNIT ( ) SI_UNIT ( $, .RADIAN. ) );
#203 = SURFACE_STYLE_USAGE ( .BOTH. , #220 ) ;
#204 = CARTESIAN_POINT ( 'NONE',  ( 100.0000000000000000, 0.0000000000000000000, 2.000000000000000000 ) ) ;
#205 = FILL_AREA_STYLE_COLOUR ( '', #31 ) ;
#206 = SURFACE_STYLE_USAGE ( .BOTH. , #177 ) ;
#207 = CARTESIAN_POINT ( 'NONE',  ( 0.0000000000000000000, 0.0000000000000000000, 0.0000000000000000000 ) ) ;
#208 =( NAMED_UNIT ( * ) PLANE_ANGLE_UNIT ( ) SI_UNIT ( $, .RADIAN. ) );
#209 = DIRECTION ( 'NONE',  ( 1.000000000000000000, 0.0000000000000000000, 0.0000000000000000000 ) ) ;
#210 = DIRECTION ( 'NONE',  ( 1.000000000000000000, 0.0000000000000000000, 0.0000000000000000000 ) ) ;
#211 = CARTESIAN_POINT ( 'NONE',  ( 108.4852813742385700, 0.0000000000000000000, 2.000000000000000000 ) ) ;
#212 = DIRECTION ( 'NONE',  ( -1.000000000000000000, -0.0000000000000000000, -0.0000000000000000000 ) ) ;
#213 = PLANE ( 'NONE',  #88 ) ;
#214 = APPLICATION_CONTEXT ( 'automotive_design' ) ;
#215 = CARTESIAN_POINT ( 'NONE',  ( 108.4852813742385700, 2.449293598294706400E-016, -2.000000000000000000 ) ) ;
#216 =( LENGTH_UNIT ( ) NAMED_UNIT ( * ) SI_UNIT ( .MILLI., .METRE. ) );
#217 = SURFACE_SIDE_STYLE ('',( #102 ) ) ;
#218 = CARTESIAN_POINT ( 'NONE',  ( 0.0000000000000000000, 0.0000000000000000000, 0.0000000000000000000 ) ) ;
#219 = DIRECTION ( 'NONE',  ( -1.000000000000000000, -0.0000000000000000000, -0.0000000000000000000 ) ) ;
#220 = SURFACE_SIDE_STYLE ('',( #115 ) ) ;
#221 = DIRECTION ( 'NONE',  ( 0.0000000000000000000, 0.0000000000000000000, -1.000000000000000000 ) ) ;
#222 = SURFACE_SIDE_STYLE ('',( #116 ) ) ;
#223 = CARTESIAN_POINT ( 'NONE',  ( 108.4852813742385700, 0.0000000000000000000, 0.0000000000000000000 ) ) ;
#224 = DIRECTION ( 'NONE',  ( 0.0000000000000000000, 0.0000000000000000000, -1.000000000000000000 ) ) ;
#225 =( NAMED_UNIT ( * ) PLANE_ANGLE_UNIT ( ) SI_UNIT ( $, .RADIAN. ) );
#226 = CARTESIAN_POINT ( 'NONE',  ( 108.4852813742385700, 0.0000000000000000000, 0.0000000000000000000 ) ) ;
#227 = PRODUCT_CONTEXT ( 'NONE', #214, 'mechanical' ) ;
#228 =( LENGTH_UNIT ( ) NAMED_UNIT ( * ) SI_UNIT ( .MILLI., .METRE. ) );
#229 = DIRECTION ( 'NONE',  ( 1.000000000000000000, 0.0000000000000000000, 0.0000000000000000000 ) ) ;
#230 = CARTESIAN_POINT ( 'NONE',  ( 0.0000000000000000000, 0.0000000000000000000, 2.000000000000000000 ) ) ;
#231 = DIRECTION ( 'NONE',  ( 0.0000000000000000000, 0.0000000000000000000, -1.000000000000000000 ) ) ;
#232 = DIRECTION ( 'NONE',  ( 0.0000000000000000000, 0.0000000000000000000, 1.000000000000000000 ) ) ;
#233 =( NAMED_UNIT ( * ) SI_UNIT ( $, .STERADIAN. ) SOLID_ANGLE_UNIT ( ) );
#234 =( LENGTH_UNIT ( ) NAMED_UNIT ( * ) SI_UNIT ( .MILLI., .METRE. ) );
#235 = DIRECTION ( 'NONE',  ( 1.000000000000000000, 0.0000000000000000000, 0.0000000000000000000 ) ) ;
#236 = DIRECTION ( 'NONE',  ( 0.0000000000000000000, 0.0000000000000000000, -1.000000000000000000 ) ) ;
#237 = FILL_AREA_STYLE ('',( #273 ) ) ;
#238 = DIRECTION ( 'NONE',  ( 0.0000000000000000000, 0.0000000000000000000, 1.000000000000000000 ) ) ;
#239 = DIRECTION ( 'NONE',  ( 0.0000000000000000000, 0.0000000000000000000, -1.000000000000000000 ) ) ;
#240 = APPLICATION_CONTEXT ( 'automotive_design' ) ;
#241 = SURFACE_STYLE_USAGE ( .BOTH. , #217 ) ;
#242 = SURFACE_STYLE_USAGE ( .BOTH. , #304 ) ;
#243 = FILL_AREA_STYLE ('',( #205 ) ) ;
#244 = DIRECTION ( 'NONE',  ( 0.0000000000000000000, 0.0000000000000000000, -1.000000000000000000 ) ) ;
#245 =( NAMED_UNIT ( * ) PLANE_ANGLE_UNIT ( ) SI_UNIT ( $, .RADIAN. ) );
#246 = FILL_AREA_STYLE ('',( #307 ) ) ;
#247 = APPLICATION_PROTOCOL_DEFINITION ( 'draft international standard', 'automotive_design', 1998, #301 ) ;
#248 = DIRECTION ( 'NONE',  ( -1.000000000000000000, -0.0000000000000000000, -0.0000000000000000000 ) ) ;
#249 =( NAMED_UNIT ( * ) SI_UNIT ( $, .STERADIAN. ) SOLID_ANGLE_UNIT ( ) );
#250 =( NAMED_UNIT ( * ) PLANE_ANGLE_UNIT ( ) SI_UNIT ( $, .RADIAN. ) );
#251 =( LENGTH_UNIT ( ) NAMED_UNIT ( * ) SI_UNIT ( .MILLI., .METRE. ) );
#252 = CARTESIAN_POINT ( 'NONE',  ( 108.4852813742385700, 0.0000000000000000000, 3.000000000000000400 ) ) ;
#253 =( NAMED_UNIT ( * ) SI_UNIT ( $, .STERADIAN. ) SOLID_ANGLE_UNIT ( ) );
#254 = DIRECTION ( 'NONE',  ( -1.000000000000000000, -0.0000000000000000000, -0.0000000000000000000 ) ) ;
#255 =( NAMED_UNIT ( * ) SI_UNIT ( $, .STERADIAN. ) SOLID_ANGLE_UNIT ( ) );
#256 = CARTESIAN_POINT ( 'NONE',  ( 0.0000000000000000000, 0.0000000000000000000, 0.0000000000000000000 ) ) ;
#257 = FILL_AREA_STYLE ('',( #296 ) ) ;
#258 = DIRECTION ( 'NONE',  ( -1.000000000000000000, -0.0000000000000000000, -0.0000000000000000000 ) ) ;
#259 = SURFACE_STYLE_USAGE ( .BOTH. , #298 ) ;
#260 =( LENGTH_UNIT ( ) NAMED_UNIT ( * ) SI_UNIT ( .MILLI., .METRE. ) );
#261 = DIRECTION ( 'NONE',  ( 0.0000000000000000000, 0.0000000000000000000, -1.000000000000000000 ) ) ;
#262 =( NAMED_UNIT ( * ) PLANE_ANGLE_UNIT ( ) SI_UNIT ( $, .RADIAN. ) );
#263 = FILL_AREA_STYLE_COLOUR ( '', #34 ) ;
#264 = DIRECTION ( 'NONE',  ( 0.0000000000000000000, 0.0000000000000000000, -1.000000000000000000 ) ) ;
#265 = SURFACE_SIDE_STYLE ('',( #138 ) ) ;
#266 = CARTESIAN_POINT ( 'NONE',  ( 100.0000000000000000, 0.0000000000000000000, 0.0000000000000000000 ) ) ;
#267 = CARTESIAN_POINT ( 'NONE',  ( 108.4852813742385700, 0.0000000000000000000, 0.0000000000000000000 ) ) ;
#268 = CARTESIAN_POINT ( 'NONE',  ( 100.0000000000000000, 2.449293598294706400E-016, -2.000000000000000000 ) ) ;
#269 =( NAMED_UNIT ( * ) PLANE_ANGLE_UNIT ( ) SI_UNIT ( $, .RADIAN. ) );
#270 = APPLICATION_PROTOCOL_DEFINITION ( 'draft international standard', 'automotive_design', 1998, #300 ) ;
#271 =( LENGTH_UNIT ( ) NAMED_UNIT ( * ) SI_UNIT ( .MILLI., .METRE. ) );
#272 = CARTESIAN_POINT ( 'NONE',  ( 0.0000000000000000000, 0.0000000000000000000, 0.0000000000000000000 ) ) ;
#273 = FILL_AREA_STYLE_COLOUR ( '', #10 ) ;
#274 = DIRECTION ( 'NONE',  ( 1.000000000000000000, 0.0000000000000000000, 0.0000000000000000000 ) ) ;
#275 = SURFACE_SIDE_STYLE ('',( #126 ) ) ;
#276 = CARTESIAN_POINT ( 'NONE',  ( 0.0000000000000000000, 0.0000000000000000000, 0.0000000000000000000 ) ) ;
#277 =( NAMED_UNIT ( * ) SI_UNIT ( $, .STERADIAN. ) SOLID_ANGLE_UNIT ( ) );
#278 = DIRECTION ( 'NONE',  ( 1.000000000000000000, 0.0000000000000000000, 0.0000000000000000000 ) ) ;
#279 = CARTESIAN_POINT ( 'NONE',  ( 0.0000000000000000000, 0.0000000000000000000, 0.0000000000000000000 ) ) ;
#280 = CARTESIAN_POINT ( 'NONE',  ( 108.4852813742385700, 3.673940397442060400E-016, -3.000000000000000400 ) ) ;
#281 = FILL_AREA_STYLE ('',( #293 ) ) ;
#282 =( NAMED_UNIT ( * ) SI_UNIT ( $, .STERADIAN. ) SOLID_ANGLE_UNIT ( ) );
#283 =( NAMED_UNIT ( * ) SI_UNIT ( $, .STERADIAN. ) SOLID_ANGLE_UNIT ( ) );
#284 =( NAMED_UNIT ( * ) SI_UNIT ( $, .STERADIAN. ) SOLID_ANGLE_UNIT ( ) );
#285 = SURFACE_STYLE_USAGE ( .BOTH. , #265 ) ;
#286 =( NAMED_UNIT ( * ) PLANE_ANGLE_UNIT ( ) SI_UNIT ( $, .RADIAN. ) );
#287 = SURFACE_STYLE_USAGE ( .BOTH. , #222 ) ;
#288 = DIRECTION ( 'NONE',  ( -1.000000000000000000, -0.0000000000000000000, -0.0000000000000000000 ) ) ;
#289 = DIRECTION ( 'NONE',  ( 1.000000000000000000, 0.0000000000000000000, 0.0000000000000000000 ) ) ;
#290 = DIRECTION ( 'NONE',  ( -1.000000000000000000, -0.0000000000000000000, -0.0000000000000000000 ) ) ;
#291 = CARTESIAN_POINT ( 'NONE',  ( 0.0000000000000000000, 0.0000000000000000000, 3.000000000000000400 ) ) ;
#292 = FILL_AREA_STYLE ('',( #173 ) ) ;
#293 = FILL_AREA_STYLE_COLOUR ( '', #14 ) ;
#294 = DIRECTION ( 'NONE',  ( 1.000000000000000000, 0.0000000000000000000, 0.0000000000000000000 ) ) ;
#295 = DIRECTION ( 'NONE',  ( -1.000000000000000000, -0.0000000000000000000, -0.0000000000000000000 ) ) ;
#296 = FILL_AREA_STYLE_COLOUR ( '', #25 ) ;
#297 = CARTESIAN_POINT ( 'NONE',  ( 0.0000000000000000000, 0.0000000000000000000, 0.0000000000000000000 ) ) ;
#298 = SURFACE_SIDE_STYLE ('',( #120 ) ) ;
#299 = DIRECTION ( 'NONE',  ( 1.000000000000000000, 0.0000000000000000000, 0.0000000000000000000 ) ) ;
#300 = APPLICATION_CONTEXT ( 'automotive_design' ) ;
#301 = APPLICATION_CONTEXT ( 'automotive_design' ) ;
#302 = DIRECTION ( 'NONE',  ( 0.0000000000000000000, 0.0000000000000000000, 1.000000000000000000 ) ) ;
#303 = DIRECTION ( 'NONE',  ( 1.000000000000000000, 0.0000000000000000000, 0.0000000000000000000 ) ) ;
#304 = SURFACE_SIDE_STYLE ('',( #127 ) ) ;
#305 =( NAMED_UNIT ( * ) PLANE_ANGLE_UNIT ( ) SI_UNIT ( $, .RADIAN. ) );
#306 = CARTESIAN_POINT ( 'NONE',  ( 100.0000000000000000, 3.673940397442060400E-016, -3.000000000000000400 ) ) ;
#307 = FILL_AREA_STYLE_COLOUR ( '', #29 ) ;
#308 = DIRECTION ( 'NONE',  ( 1.000000000000000000, 0.0000000000000000000, 0.0000000000000000000 ) ) ;
#309 =( NAMED_UNIT ( * ) SI_UNIT ( $, .STERADIAN. ) SOLID_ANGLE_UNIT ( ) );
#310 = CARTESIAN_POINT ( 'NONE',  ( 100.0000000000000000, 0.0000000000000000000, 0.0000000000000000000 ) ) ;
#311 = CARTESIAN_POINT ( 'NONE',  ( 0.0000000000000000000, 0.0000000000000000000, 0.0000000000000000000 ) ) ;
#312 = DIRECTION ( 'NONE',  ( 1.000000000000000000, 0.0000000000000000000, 0.0000000000000000000 ) ) ;
#313 = PRODUCT_CONTEXT ( 'NONE', #240, 'mechanical' ) ;
#314 = DIRECTION ( 'NONE',  ( 0.0000000000000000000, 0.0000000000000000000, 1.000000000000000000 ) ) ;
#315 = DIRECTION ( 'NONE',  ( 1.000000000000000000, 0.0000000000000000000, 0.0000000000000000000 ) ) ;
#316 = ORIENTED_EDGE ( 'NONE', *, *, #23, .T. ) ;
#317 = ORIENTED_EDGE ( 'NONE', *, *, #9, .T. ) ;
#318 = ORIENTED_EDGE ( 'NONE', *, *, #4, .F. ) ;
#319 = ORIENTED_EDGE ( 'NONE', *, *, #3, .F. ) ;
#320 = ORIENTED_EDGE ( 'NONE', *, *, #22, .F. ) ;
#321 = ORIENTED_EDGE ( 'NONE', *, *, #28, .T. ) ;
#322 = ORIENTED_EDGE ( 'NONE', *, *, #20, .F. ) ;
#323 = ORIENTED_EDGE ( 'NONE', *, *, #2, .F. ) ;
#324 = ORIENTED_EDGE ( 'NONE', *, *, #16, .T. ) ;
#325 = ORIENTED_EDGE ( 'NONE', *, *, #9, .F. ) ;
#326 = ORIENTED_EDGE ( 'NONE', *, *, #24, .F. ) ;
#327 = ORIENTED_EDGE ( 'NONE', *, *, #22, .T. ) ;
#328 = ORIENTED_EDGE ( 'NONE', *, *, #17, .T. ) ;
#329 = ORIENTED_EDGE ( 'NONE', *, *, #17, .F. ) ;
#330 = ORIENTED_EDGE ( 'NONE', *, *, #20, .T. ) ;
#331 = ORIENTED_EDGE ( 'NONE', *, *, #23, .F. ) ;
#332 = ORIENTED_EDGE ( 'NONE', *, *, #4, .T. ) ;
#333 = ORIENTED_EDGE ( 'NONE', *, *, #28, .F. ) ;
#334 = ORIENTED_EDGE ( 'NONE', *, *, #7, .F. ) ;
#335 = VERTEX_POINT ( 'NONE', #230 ) ;
#336 = ORIENTED_EDGE ( 'NONE', *, *, #2, .T. ) ;
#337 = ORIENTED_EDGE ( 'NONE', *, *, #3, .T. ) ;
#338 = ORIENTED_EDGE ( 'NONE', *, *, #16, .F. ) ;
#339 = ORIENTED_EDGE ( 'NONE', *, *, #7, .T. ) ;
#340 = ORIENTED_EDGE ( 'NONE', *, *, #24, .T. ) ;
#341 = MANIFOLD_SOLID_BREP ( 'Tube', #146 ) ;
ENDSEC;
END-ISO-10303-21;
