ISO-10303-21;
HEADER;
FILE_DESCRIPTION (( 'STEP AP214' ),
    '1' );
FILE_NAME ('TU0604BU-20.step.step',
    '2011-05-28T08:35:44',
    ( 'sysAdmin' ),
    ( 'SolidWorks' ),
    'SwSTEP 2.0',
    'SolidWorks 2011',
    '' );
FILE_SCHEMA (( 'AUTOMOTIVE_DESIGN' ));
ENDSEC;

DATA;
#1 =( NAMED_UNIT ( * ) SI_UNIT ( $, .STERADIAN. ) SOLID_ANGLE_UNIT ( ) );
#2 = ORIENTED_EDGE ( 'NONE', *, *, #27, .F. ) ;
#3 = UNCERTAINTY_MEASURE_WITH_UNIT (LENGTH_MEASURE( 1.000000000000000100E-005 ), #49, 'distance_accuracy_value', 'NONE');
#4 = ORIENTED_EDGE ( 'NONE', *, *, #80, .T. ) ;
#5 = EDGE_CURVE ( 'NONE', #76, #78, #61, .T. ) ;
#6 = ADVANCED_FACE ( 'NONE', ( #45, #62 ), #88, .F. ) ;
#7 = ORIENTED_EDGE ( 'NONE', *, *, #24, .F. ) ;
#8 = EDGE_LOOP ( 'NONE', ( #4, #23 ) ) ;
#9 =( GEOMETRIC_REPRESENTATION_CONTEXT ( 3 ) GLOBAL_UNCERTAINTY_ASSIGNED_CONTEXT ( ( #3 ) ) GLOBAL_UNIT_ASSIGNED_CONTEXT ( ( #49, #48, #1 ) ) REPRESENTATION_CONTEXT ( 'NONE', 'WORKASPACE' ) );
#10 = ORIENTED_EDGE ( 'NONE', *, *, #35, .F. ) ;
#11 = ORIENTED_EDGE ( 'NONE', *, *, #12, .T. ) ;
#12 = EDGE_CURVE ( 'NONE', #74, #43, #129, .T. ) ;
#13 = EDGE_LOOP ( 'NONE', ( #14, #2, #25, #22 ) ) ;
#14 = ORIENTED_EDGE ( 'NONE', *, *, #37, .F. ) ;
#15 = ADVANCED_FACE ( 'NONE', ( #116 ), #136, .T. ) ;
#16 = ORIENTED_EDGE ( 'NONE', *, *, #5, .F. ) ;
#17 = EDGE_LOOP ( 'NONE', ( #30, #70 ) ) ;
#18 = ORIENTED_EDGE ( 'NONE', *, *, #75, .F. ) ;
#19 = EDGE_LOOP ( 'NONE', ( #7, #10 ) ) ;
#20 = ORIENTED_EDGE ( 'NONE', *, *, #82, .T. ) ;
#21 = ADVANCED_FACE ( 'NONE', ( #127 ), #117, .F. ) ;
#22 = ORIENTED_EDGE ( 'NONE', *, *, #24, .T. ) ;
#23 = ORIENTED_EDGE ( 'NONE', *, *, #5, .T. ) ;
#24 = EDGE_CURVE ( 'NONE', #39, #66, #99, .T. ) ;
#25 = ORIENTED_EDGE ( 'NONE', *, *, #32, .T. ) ;
#26 = EDGE_LOOP ( 'NONE', ( #18, #11, #20, #16 ) ) ;
#27 = EDGE_CURVE ( 'NONE', #65, #77, #112, .T. ) ;
#28 = EDGE_LOOP ( 'NONE', ( #64, #79, #47, #81 ) ) ;
#29 = ADVANCED_FACE ( 'NONE', ( #152, #111 ), #115, .T. ) ;
#30 = ORIENTED_EDGE ( 'NONE', *, *, #42, .F. ) ;
#31 = ORIENTED_EDGE ( 'NONE', *, *, #27, .T. ) ;
#32 = EDGE_CURVE ( 'NONE', #65, #39, #178, .T. ) ;
#33 = ORIENTED_EDGE ( 'NONE', *, *, #32, .F. ) ;
#34 = ADVANCED_FACE ( 'NONE', ( #170 ), #250, .T. ) ;
#35 = EDGE_CURVE ( 'NONE', #66, #39, #248, .T. ) ;
#36 = ORIENTED_EDGE ( 'NONE', *, *, #38, .F. ) ;
#37 = EDGE_CURVE ( 'NONE', #77, #66, #245, .T. ) ;
#38 = EDGE_CURVE ( 'NONE', #77, #65, #251, .T. ) ;
#39 = VERTEX_POINT ( 'NONE', #286 ) ;
#40 = ORIENTED_EDGE ( 'NONE', *, *, #37, .T. ) ;
#41 = EDGE_LOOP ( 'NONE', ( #36, #40, #67, #33 ) ) ;
#42 = EDGE_CURVE ( 'NONE', #43, #74, #285, .T. ) ;
#43 = VERTEX_POINT ( 'NONE', #232 ) ;
#44 = MANIFOLD_SOLID_BREP ( 'Tube', #71 ) ;
#45 = FACE_OUTER_BOUND ( 'NONE', #19, .T. ) ;
#46 = FILL_AREA_STYLE ('',( #63 ) ) ;
#47 = ORIENTED_EDGE ( 'NONE', *, *, #80, .F. ) ;
#48 =( NAMED_UNIT ( * ) PLANE_ANGLE_UNIT ( ) SI_UNIT ( $, .RADIAN. ) );
#49 =( LENGTH_UNIT ( ) NAMED_UNIT ( * ) SI_UNIT ( .MILLI., .METRE. ) );
#50 = MECHANICAL_DESIGN_GEOMETRIC_PRESENTATION_REPRESENTATION (  '', ( #52 ), #9 ) ;
#51 = PRESENTATION_LAYER_ASSIGNMENT (  '', '', ( #52 ) ) ;
#52 = STYLED_ITEM ( 'NONE', ( #53 ), #6 ) ;
#53 = PRESENTATION_STYLE_ASSIGNMENT (( #54 ) ) ;
#54 = SURFACE_STYLE_USAGE ( .BOTH. , #59 ) ;
#55 = COLOUR_RGB ( '',0.2470588235294117800, 0.6470588235294118000, 1.000000000000000000 ) ;
#56 = DIRECTION ( 'NONE',  ( 0.0000000000000000000, 0.0000000000000000000, -1.000000000000000000 ) ) ;
#57 = DIRECTION ( 'NONE',  ( 1.000000000000000000, 0.0000000000000000000, 0.0000000000000000000 ) ) ;
#58 = AXIS2_PLACEMENT_3D ( 'NONE', #72, #57, #56 ) ;
#59 = SURFACE_SIDE_STYLE ('',( #60 ) ) ;
#60 = SURFACE_STYLE_FILL_AREA ( #46 ) ;
#61 = CIRCLE ( 'NONE', #58, 2.000000000000000000 ) ;
#62 = FACE_BOUND ( 'NONE', #8, .T. ) ;
#63 = FILL_AREA_STYLE_COLOUR ( '', #55 ) ;
#64 = ORIENTED_EDGE ( 'NONE', *, *, #42, .T. ) ;
#65 = VERTEX_POINT ( 'NONE', #283 ) ;
#66 = VERTEX_POINT ( 'NONE', #229 ) ;
#67 = ORIENTED_EDGE ( 'NONE', *, *, #35, .T. ) ;
#68 = ORIENTED_EDGE ( 'NONE', *, *, #38, .T. ) ;
#69 = EDGE_LOOP ( 'NONE', ( #31, #68 ) ) ;
#70 = ORIENTED_EDGE ( 'NONE', *, *, #12, .F. ) ;
#71 = CLOSED_SHELL ( 'NONE', ( #73, #34, #15, #6, #21, #29 ) ) ;
#72 = CARTESIAN_POINT ( 'NONE',  ( 0.0000000000000000000, 0.0000000000000000000, 0.0000000000000000000 ) ) ;
#73 = ADVANCED_FACE ( 'NONE', ( #231 ), #244, .F. ) ;
#74 = VERTEX_POINT ( 'NONE', #187 ) ;
#75 = EDGE_CURVE ( 'NONE', #74, #76, #264, .T. ) ;
#76 = VERTEX_POINT ( 'NONE', #265 ) ;
#77 = VERTEX_POINT ( 'NONE', #276 ) ;
#78 = VERTEX_POINT ( 'NONE', #259 ) ;
#79 = ORIENTED_EDGE ( 'NONE', *, *, #75, .T. ) ;
#80 = EDGE_CURVE ( 'NONE', #78, #76, #260, .T. ) ;
#81 = ORIENTED_EDGE ( 'NONE', *, *, #82, .F. ) ;
#82 = EDGE_CURVE ( 'NONE', #43, #78, #261, .T. ) ;
#83 = DIRECTION ( 'NONE',  ( 1.000000000000000000, 0.0000000000000000000, 0.0000000000000000000 ) ) ;
#84 = CARTESIAN_POINT ( 'NONE',  ( 100.0000000000000000, 0.0000000000000000000, 0.0000000000000000000 ) ) ;
#85 = AXIS2_PLACEMENT_3D ( 'NONE', #84, #83, #147 ) ;
#86 =( GEOMETRIC_REPRESENTATION_CONTEXT ( 3 ) GLOBAL_UNCERTAINTY_ASSIGNED_CONTEXT ( ( #87 ) ) GLOBAL_UNIT_ASSIGNED_CONTEXT ( ( #140, #139, #138 ) ) REPRESENTATION_CONTEXT ( 'NONE', 'WORKASPACE' ) );
#87 = UNCERTAINTY_MEASURE_WITH_UNIT (LENGTH_MEASURE( 1.000000000000000100E-005 ), #140, 'distance_accuracy_value', 'NONE');
#88 = PLANE ( 'NONE',  #165 ) ;
#89 =( LENGTH_UNIT ( ) NAMED_UNIT ( * ) SI_UNIT ( .MILLI., .METRE. ) );
#90 = MECHANICAL_DESIGN_GEOMETRIC_PRESENTATION_REPRESENTATION (  '', ( #92 ), #155 ) ;
#91 = PRESENTATION_LAYER_ASSIGNMENT (  '', '', ( #92 ) ) ;
#92 = STYLED_ITEM ( 'NONE', ( #93 ), #21 ) ;
#93 = PRESENTATION_STYLE_ASSIGNMENT (( #94 ) ) ;
#94 = SURFACE_STYLE_USAGE ( .BOTH. , #103 ) ;
#95 = SURFACE_STYLE_FILL_AREA ( #104 ) ;
#96 = FILL_AREA_STYLE ('',( #153 ) ) ;
#97 = DIRECTION ( 'NONE',  ( 0.0000000000000000000, 0.0000000000000000000, 1.000000000000000000 ) ) ;
#98 = CARTESIAN_POINT ( 'NONE',  ( 108.4852813742385700, 0.0000000000000000000, 0.0000000000000000000 ) ) ;
#99 = CIRCLE ( 'NONE', #109, 3.000000000000000400 ) ;
#100 =( NAMED_UNIT ( * ) PLANE_ANGLE_UNIT ( ) SI_UNIT ( $, .RADIAN. ) );
#101 =( LENGTH_UNIT ( ) NAMED_UNIT ( * ) SI_UNIT ( .MILLI., .METRE. ) );
#102 = DIRECTION ( 'NONE',  ( 0.0000000000000000000, 0.0000000000000000000, -1.000000000000000000 ) ) ;
#103 = SURFACE_SIDE_STYLE ('',( #95 ) ) ;
#104 = FILL_AREA_STYLE ('',( #126 ) ) ;
#105 = AXIS2_PLACEMENT_3D ( 'NONE', #98, #114, #113 ) ;
#106 = DIRECTION ( 'NONE',  ( 0.0000000000000000000, 0.0000000000000000000, -1.000000000000000000 ) ) ;
#107 = DIRECTION ( 'NONE',  ( 1.000000000000000000, 0.0000000000000000000, 0.0000000000000000000 ) ) ;
#108 = CARTESIAN_POINT ( 'NONE',  ( 0.0000000000000000000, 0.0000000000000000000, 0.0000000000000000000 ) ) ;
#109 = AXIS2_PLACEMENT_3D ( 'NONE', #108, #107, #106 ) ;
#110 = AXIS2_PLACEMENT_3D ( 'NONE', #154, #150, #149 ) ;
#111 = FACE_OUTER_BOUND ( 'NONE', #69, .T. ) ;
#112 = CIRCLE ( 'NONE', #110, 3.000000000000000400 ) ;
#113 = DIRECTION ( 'NONE',  ( 0.0000000000000000000, 0.0000000000000000000, 1.000000000000000000 ) ) ;
#114 = DIRECTION ( 'NONE',  ( -1.000000000000000000, -0.0000000000000000000, -0.0000000000000000000 ) ) ;
#115 = PLANE ( 'NONE',  #85 ) ;
#116 = FACE_OUTER_BOUND ( 'NONE', #13, .T. ) ;
#117 = CYLINDRICAL_SURFACE ( 'NONE', #105, 2.000000000000000000 ) ;
#118 = DIRECTION ( 'NONE',  ( 1.000000000000000000, 0.0000000000000000000, 0.0000000000000000000 ) ) ;
#119 = SURFACE_STYLE_USAGE ( .BOTH. , #120 ) ;
#120 = SURFACE_SIDE_STYLE ('',( #133 ) ) ;
#121 = DIRECTION ( 'NONE',  ( 1.000000000000000000, 0.0000000000000000000, 0.0000000000000000000 ) ) ;
#122 = MECHANICAL_DESIGN_GEOMETRIC_PRESENTATION_REPRESENTATION (  '', ( #124 ), #162 ) ;
#123 = PRESENTATION_LAYER_ASSIGNMENT (  '', '', ( #124 ) ) ;
#124 = STYLED_ITEM ( 'NONE', ( #125 ), #15 ) ;
#125 = PRESENTATION_STYLE_ASSIGNMENT (( #119 ) ) ;
#126 = FILL_AREA_STYLE_COLOUR ( '', #159 ) ;
#127 = FACE_OUTER_BOUND ( 'NONE', #26, .T. ) ;
#128 = CARTESIAN_POINT ( 'NONE',  ( 100.0000000000000000, 0.0000000000000000000, 0.0000000000000000000 ) ) ;
#129 = CIRCLE ( 'NONE', #166, 2.000000000000000000 ) ;
#130 = AXIS2_PLACEMENT_3D ( 'NONE', #160, #161, #97 ) ;
#131 = CARTESIAN_POINT ( 'NONE',  ( 0.0000000000000000000, 0.0000000000000000000, 0.0000000000000000000 ) ) ;
#132 = FILL_AREA_STYLE_COLOUR ( '', #134 ) ;
#133 = SURFACE_STYLE_FILL_AREA ( #137 ) ;
#134 = COLOUR_RGB ( '',0.2470588235294117800, 0.6470588235294118000, 1.000000000000000000 ) ;
#135 = DIRECTION ( 'NONE',  ( 0.0000000000000000000, 0.0000000000000000000, -1.000000000000000000 ) ) ;
#136 = CYLINDRICAL_SURFACE ( 'NONE', #130, 3.000000000000000400 ) ;
#137 = FILL_AREA_STYLE ('',( #132 ) ) ;
#138 =( NAMED_UNIT ( * ) SI_UNIT ( $, .STERADIAN. ) SOLID_ANGLE_UNIT ( ) );
#139 =( NAMED_UNIT ( * ) PLANE_ANGLE_UNIT ( ) SI_UNIT ( $, .RADIAN. ) );
#140 =( LENGTH_UNIT ( ) NAMED_UNIT ( * ) SI_UNIT ( .MILLI., .METRE. ) );
#141 = MECHANICAL_DESIGN_GEOMETRIC_PRESENTATION_REPRESENTATION (  '', ( #143 ), #86 ) ;
#142 = PRESENTATION_LAYER_ASSIGNMENT (  '', '', ( #143 ) ) ;
#143 = STYLED_ITEM ( 'NONE', ( #144 ), #29 ) ;
#144 = PRESENTATION_STYLE_ASSIGNMENT (( #145 ) ) ;
#145 = SURFACE_STYLE_USAGE ( .BOTH. , #146 ) ;
#146 = SURFACE_SIDE_STYLE ('',( #151 ) ) ;
#147 = DIRECTION ( 'NONE',  ( 0.0000000000000000000, 0.0000000000000000000, -1.000000000000000000 ) ) ;
#148 = COLOUR_RGB ( '',0.2470588235294117800, 0.6470588235294118000, 1.000000000000000000 ) ;
#149 = DIRECTION ( 'NONE',  ( 0.0000000000000000000, 0.0000000000000000000, -1.000000000000000000 ) ) ;
#150 = DIRECTION ( 'NONE',  ( 1.000000000000000000, 0.0000000000000000000, 0.0000000000000000000 ) ) ;
#151 = SURFACE_STYLE_FILL_AREA ( #96 ) ;
#152 = FACE_BOUND ( 'NONE', #17, .T. ) ;
#153 = FILL_AREA_STYLE_COLOUR ( '', #148 ) ;
#154 = CARTESIAN_POINT ( 'NONE',  ( 100.0000000000000000, 0.0000000000000000000, 0.0000000000000000000 ) ) ;
#155 =( GEOMETRIC_REPRESENTATION_CONTEXT ( 3 ) GLOBAL_UNCERTAINTY_ASSIGNED_CONTEXT ( ( #156 ) ) GLOBAL_UNIT_ASSIGNED_CONTEXT ( ( #89, #158, #157 ) ) REPRESENTATION_CONTEXT ( 'NONE', 'WORKASPACE' ) );
#156 = UNCERTAINTY_MEASURE_WITH_UNIT (LENGTH_MEASURE( 1.000000000000000100E-005 ), #89, 'distance_accuracy_value', 'NONE');
#157 =( NAMED_UNIT ( * ) SI_UNIT ( $, .STERADIAN. ) SOLID_ANGLE_UNIT ( ) );
#158 =( NAMED_UNIT ( * ) PLANE_ANGLE_UNIT ( ) SI_UNIT ( $, .RADIAN. ) );
#159 = COLOUR_RGB ( '',0.2470588235294117800, 0.6470588235294118000, 1.000000000000000000 ) ;
#160 = CARTESIAN_POINT ( 'NONE',  ( 108.4852813742385700, 0.0000000000000000000, 0.0000000000000000000 ) ) ;
#161 = DIRECTION ( 'NONE',  ( -1.000000000000000000, -0.0000000000000000000, -0.0000000000000000000 ) ) ;
#162 =( GEOMETRIC_REPRESENTATION_CONTEXT ( 3 ) GLOBAL_UNCERTAINTY_ASSIGNED_CONTEXT ( ( #163 ) ) GLOBAL_UNIT_ASSIGNED_CONTEXT ( ( #101, #100, #164 ) ) REPRESENTATION_CONTEXT ( 'NONE', 'WORKASPACE' ) );
#163 = UNCERTAINTY_MEASURE_WITH_UNIT (LENGTH_MEASURE( 1.000000000000000100E-005 ), #101, 'distance_accuracy_value', 'NONE');
#164 =( NAMED_UNIT ( * ) SI_UNIT ( $, .STERADIAN. ) SOLID_ANGLE_UNIT ( ) );
#165 = AXIS2_PLACEMENT_3D ( 'NONE', #131, #121, #102 ) ;
#166 = AXIS2_PLACEMENT_3D ( 'NONE', #128, #118, #135 ) ;
#167 = CARTESIAN_POINT ( 'NONE',  ( 108.4852813742385700, 0.0000000000000000000, 3.000000000000000400 ) ) ;
#168 =( GEOMETRIC_REPRESENTATION_CONTEXT ( 3 ) GLOBAL_UNCERTAINTY_ASSIGNED_CONTEXT ( ( #169 ) ) GLOBAL_UNIT_ASSIGNED_CONTEXT ( ( #174, #184, #183 ) ) REPRESENTATION_CONTEXT ( 'NONE', 'WORKASPACE' ) );
#169 = UNCERTAINTY_MEASURE_WITH_UNIT (LENGTH_MEASURE( 1.000000000000000100E-005 ), #174, 'distance_accuracy_value', 'NONE');
#170 = FACE_OUTER_BOUND ( 'NONE', #41, .T. ) ;
#171 = FILL_AREA_STYLE_COLOUR ( '', #176 ) ;
#172 = SURFACE_SIDE_STYLE ('',( #173 ) ) ;
#173 = SURFACE_STYLE_FILL_AREA ( #175 ) ;
#174 =( LENGTH_UNIT ( ) NAMED_UNIT ( * ) SI_UNIT ( .MILLI., .METRE. ) );
#175 = FILL_AREA_STYLE ('',( #171 ) ) ;
#176 = COLOUR_RGB ( '',0.2470588235294117800, 0.6470588235294118000, 1.000000000000000000 ) ;
#177 = PRESENTATION_STYLE_ASSIGNMENT (( #182 ) ) ;
#178 = LINE ( 'NONE', #167, #186 ) ;
#179 = MECHANICAL_DESIGN_GEOMETRIC_PRESENTATION_REPRESENTATION (  '', ( #181 ), #168 ) ;
#180 = PRESENTATION_LAYER_ASSIGNMENT (  '', '', ( #181 ) ) ;
#181 = STYLED_ITEM ( 'NONE', ( #177 ), #34 ) ;
#182 = SURFACE_STYLE_USAGE ( .BOTH. , #172 ) ;
#183 =( NAMED_UNIT ( * ) SI_UNIT ( $, .STERADIAN. ) SOLID_ANGLE_UNIT ( ) );
#184 =( NAMED_UNIT ( * ) PLANE_ANGLE_UNIT ( ) SI_UNIT ( $, .RADIAN. ) );
#185 = DIRECTION ( 'NONE',  ( -1.000000000000000000, -0.0000000000000000000, -0.0000000000000000000 ) ) ;
#186 = VECTOR ( 'NONE', #185, 1000.000000000000000 ) ;
#187 = CARTESIAN_POINT ( 'NONE',  ( 100.0000000000000000, 2.449293598294706400E-016, -2.000000000000000000 ) ) ;
#188 = COLOUR_RGB ( '',0.2470588235294117800, 0.6470588235294118000, 1.000000000000000000 ) ;
#189 =( GEOMETRIC_REPRESENTATION_CONTEXT ( 3 ) GLOBAL_UNCERTAINTY_ASSIGNED_CONTEXT ( ( #190 ) ) GLOBAL_UNIT_ASSIGNED_CONTEXT ( ( #193, #192, #191 ) ) REPRESENTATION_CONTEXT ( 'NONE', 'WORKASPACE' ) );
#190 = UNCERTAINTY_MEASURE_WITH_UNIT (LENGTH_MEASURE( 1.000000000000000100E-005 ), #193, 'distance_accuracy_value', 'NONE');
#191 =( NAMED_UNIT ( * ) SI_UNIT ( $, .STERADIAN. ) SOLID_ANGLE_UNIT ( ) );
#192 =( NAMED_UNIT ( * ) PLANE_ANGLE_UNIT ( ) SI_UNIT ( $, .RADIAN. ) );
#193 =( LENGTH_UNIT ( ) NAMED_UNIT ( * ) SI_UNIT ( .MILLI., .METRE. ) );
#194 = MECHANICAL_DESIGN_GEOMETRIC_PRESENTATION_REPRESENTATION (  '', ( #196 ), #189 ) ;
#195 = PRESENTATION_LAYER_ASSIGNMENT (  '', '', ( #196 ) ) ;
#196 = STYLED_ITEM ( 'NONE', ( #197 ), #44 ) ;
#197 = PRESENTATION_STYLE_ASSIGNMENT (( #198 ) ) ;
#198 = SURFACE_STYLE_USAGE ( .BOTH. , #277 ) ;
#199 = UNCERTAINTY_MEASURE_WITH_UNIT (LENGTH_MEASURE( 1.000000000000000100E-005 ), #297, 'distance_accuracy_value', 'NONE');
#200 =( NAMED_UNIT ( * ) SI_UNIT ( $, .STERADIAN. ) SOLID_ANGLE_UNIT ( ) );
#201 =( NAMED_UNIT ( * ) PLANE_ANGLE_UNIT ( ) SI_UNIT ( $, .RADIAN. ) );
#202 = UNCERTAINTY_MEASURE_WITH_UNIT (LENGTH_MEASURE( 1.000000000000000100E-005 ), #205, 'distance_accuracy_value', 'NONE');
#203 =( NAMED_UNIT ( * ) SI_UNIT ( $, .STERADIAN. ) SOLID_ANGLE_UNIT ( ) );
#204 =( NAMED_UNIT ( * ) PLANE_ANGLE_UNIT ( ) SI_UNIT ( $, .RADIAN. ) );
#205 =( LENGTH_UNIT ( ) NAMED_UNIT ( * ) SI_UNIT ( .MILLI., .METRE. ) );
#206 = DIRECTION ( 'NONE',  ( 1.000000000000000000, 0.0000000000000000000, 0.0000000000000000000 ) ) ;
#207 = DIRECTION ( 'NONE',  ( 0.0000000000000000000, 0.0000000000000000000, 1.000000000000000000 ) ) ;
#208 = CARTESIAN_POINT ( 'NONE',  ( 0.0000000000000000000, 0.0000000000000000000, 0.0000000000000000000 ) ) ;
#209 = AXIS2_PLACEMENT_3D ( 'NONE', #208, #207, #206 ) ;
#210 = DIRECTION ( 'NONE',  ( 1.000000000000000000, 0.0000000000000000000, 0.0000000000000000000 ) ) ;
#211 = DIRECTION ( 'NONE',  ( 0.0000000000000000000, 0.0000000000000000000, 1.000000000000000000 ) ) ;
#212 = CARTESIAN_POINT ( 'NONE',  ( 0.0000000000000000000, 0.0000000000000000000, 0.0000000000000000000 ) ) ;
#213 = AXIS2_PLACEMENT_3D ( 'NONE', #212, #211, #210 ) ;
#214 = SHAPE_REPRESENTATION ( 'TU0604BU-20.step', ( #220, #209 ), #233 ) ;
#215 = DIRECTION ( 'NONE',  ( 0.0000000000000000000, 0.0000000000000000000, -1.000000000000000000 ) ) ;
#216 = DIRECTION ( 'NONE',  ( 1.000000000000000000, 0.0000000000000000000, 0.0000000000000000000 ) ) ;
#217 = CARTESIAN_POINT ( 'NONE',  ( 0.0000000000000000000, 0.0000000000000000000, 0.0000000000000000000 ) ) ;
#218 = AXIS2_PLACEMENT_3D ( 'NONE', #217, #216, #215 ) ;
#219 = CARTESIAN_POINT ( 'NONE',  ( 0.0000000000000000000, 0.0000000000000000000, 0.0000000000000000000 ) ) ;
#220 = AXIS2_PLACEMENT_3D ( 'NONE', #219, #222, #221 ) ;
#221 = DIRECTION ( 'NONE',  ( 1.000000000000000000, 0.0000000000000000000, 0.0000000000000000000 ) ) ;
#222 = DIRECTION ( 'NONE',  ( 0.0000000000000000000, 0.0000000000000000000, 1.000000000000000000 ) ) ;
#223 = SHAPE_REPRESENTATION_RELATIONSHIP ( 'NONE' , 'NONE' ,  #224, #309 ) ;
#224 = SHAPE_REPRESENTATION ( 'TU0604BU-20.step_TU3076 Tube_0604BU', ( #308 ), #310 ) ;
#225 =( GEOMETRIC_REPRESENTATION_CONTEXT ( 3 ) GLOBAL_UNCERTAINTY_ASSIGNED_CONTEXT ( ( #199 ) ) GLOBAL_UNIT_ASSIGNED_CONTEXT ( ( #297, #201, #200 ) ) REPRESENTATION_CONTEXT ( 'NONE', 'WORKASPACE' ) );
#226 = FILL_AREA_STYLE_COLOUR ( '', #228 ) ;
#227 = SURFACE_STYLE_FILL_AREA ( #278 ) ;
#228 = COLOUR_RGB ( '',0.0000000000000000000, 0.5843137254901961100, 0.9058823529411764700 ) ;
#229 = CARTESIAN_POINT ( 'NONE',  ( 0.0000000000000000000, 3.673940397442060400E-016, -3.000000000000000400 ) ) ;
#230 = DIRECTION ( 'NONE',  ( 0.0000000000000000000, 0.0000000000000000000, -1.000000000000000000 ) ) ;
#231 = FACE_OUTER_BOUND ( 'NONE', #28, .T. ) ;
#232 = CARTESIAN_POINT ( 'NONE',  ( 100.0000000000000000, 0.0000000000000000000, 2.000000000000000000 ) ) ;
#233 =( GEOMETRIC_REPRESENTATION_CONTEXT ( 3 ) GLOBAL_UNCERTAINTY_ASSIGNED_CONTEXT ( ( #202 ) ) GLOBAL_UNIT_ASSIGNED_CONTEXT ( ( #205, #204, #203 ) ) REPRESENTATION_CONTEXT ( 'NONE', 'WORKASPACE' ) );
#234 =( LENGTH_UNIT ( ) NAMED_UNIT ( * ) SI_UNIT ( .MILLI., .METRE. ) );
#235 = MECHANICAL_DESIGN_GEOMETRIC_PRESENTATION_REPRESENTATION (  '', ( #237 ), #271 ) ;
#236 = PRESENTATION_LAYER_ASSIGNMENT (  '', '', ( #237 ) ) ;
#237 = STYLED_ITEM ( 'NONE', ( #238 ), #73 ) ;
#238 = PRESENTATION_STYLE_ASSIGNMENT (( #239 ) ) ;
#239 = SURFACE_STYLE_USAGE ( .BOTH. , #240 ) ;
#240 = SURFACE_SIDE_STYLE ('',( #241 ) ) ;
#241 = SURFACE_STYLE_FILL_AREA ( #242 ) ;
#242 = FILL_AREA_STYLE ('',( #243 ) ) ;
#243 = FILL_AREA_STYLE_COLOUR ( '', #188 ) ;
#244 = CYLINDRICAL_SURFACE ( 'NONE', #268, 2.000000000000000000 ) ;
#245 = LINE ( 'NONE', #252, #288 ) ;
#246 = DIRECTION ( 'NONE',  ( 1.000000000000000000, 0.0000000000000000000, 0.0000000000000000000 ) ) ;
#247 = DIRECTION ( 'NONE',  ( 0.0000000000000000000, 0.0000000000000000000, 1.000000000000000000 ) ) ;
#248 = CIRCLE ( 'NONE', #218, 3.000000000000000400 ) ;
#249 = DIRECTION ( 'NONE',  ( -1.000000000000000000, -0.0000000000000000000, -0.0000000000000000000 ) ) ;
#250 = CYLINDRICAL_SURFACE ( 'NONE', #253, 3.000000000000000400 ) ;
#251 = CIRCLE ( 'NONE', #282, 3.000000000000000400 ) ;
#252 = CARTESIAN_POINT ( 'NONE',  ( 108.4852813742385700, 3.673940397442060400E-016, -3.000000000000000400 ) ) ;
#253 = AXIS2_PLACEMENT_3D ( 'NONE', #254, #249, #247 ) ;
#254 = CARTESIAN_POINT ( 'NONE',  ( 108.4852813742385700, 0.0000000000000000000, 0.0000000000000000000 ) ) ;
#255 = CARTESIAN_POINT ( 'NONE',  ( 0.0000000000000000000, 0.0000000000000000000, 0.0000000000000000000 ) ) ;
#256 = AXIS2_PLACEMENT_3D ( 'NONE', #255, #296, #295 ) ;
#257 = DIRECTION ( 'NONE',  ( -1.000000000000000000, -0.0000000000000000000, -0.0000000000000000000 ) ) ;
#258 = CARTESIAN_POINT ( 'NONE',  ( 108.4852813742385700, 0.0000000000000000000, 2.000000000000000000 ) ) ;
#259 = CARTESIAN_POINT ( 'NONE',  ( 0.0000000000000000000, 0.0000000000000000000, 2.000000000000000000 ) ) ;
#260 = CIRCLE ( 'NONE', #256, 2.000000000000000000 ) ;
#261 = LINE ( 'NONE', #258, #293 ) ;
#262 = DIRECTION ( 'NONE',  ( -1.000000000000000000, -0.0000000000000000000, -0.0000000000000000000 ) ) ;
#263 = VECTOR ( 'NONE', #262, 1000.000000000000000 ) ;
#264 = LINE ( 'NONE', #267, #263 ) ;
#265 = CARTESIAN_POINT ( 'NONE',  ( 0.0000000000000000000, 2.449293598294706400E-016, -2.000000000000000000 ) ) ;
#266 = DIRECTION ( 'NONE',  ( 0.0000000000000000000, 0.0000000000000000000, 1.000000000000000000 ) ) ;
#267 = CARTESIAN_POINT ( 'NONE',  ( 108.4852813742385700, 2.449293598294706400E-016, -2.000000000000000000 ) ) ;
#268 = AXIS2_PLACEMENT_3D ( 'NONE', #270, #269, #266 ) ;
#269 = DIRECTION ( 'NONE',  ( -1.000000000000000000, -0.0000000000000000000, -0.0000000000000000000 ) ) ;
#270 = CARTESIAN_POINT ( 'NONE',  ( 108.4852813742385700, 0.0000000000000000000, 0.0000000000000000000 ) ) ;
#271 =( GEOMETRIC_REPRESENTATION_CONTEXT ( 3 ) GLOBAL_UNCERTAINTY_ASSIGNED_CONTEXT ( ( #272 ) ) GLOBAL_UNIT_ASSIGNED_CONTEXT ( ( #234, #274, #273 ) ) REPRESENTATION_CONTEXT ( 'NONE', 'WORKASPACE' ) );
#272 = UNCERTAINTY_MEASURE_WITH_UNIT (LENGTH_MEASURE( 1.000000000000000100E-005 ), #234, 'distance_accuracy_value', 'NONE');
#273 =( NAMED_UNIT ( * ) SI_UNIT ( $, .STERADIAN. ) SOLID_ANGLE_UNIT ( ) );
#274 =( NAMED_UNIT ( * ) PLANE_ANGLE_UNIT ( ) SI_UNIT ( $, .RADIAN. ) );
#275 = CARTESIAN_POINT ( 'NONE',  ( 100.0000000000000000, 0.0000000000000000000, 0.0000000000000000000 ) ) ;
#276 = CARTESIAN_POINT ( 'NONE',  ( 100.0000000000000000, 3.673940397442060400E-016, -3.000000000000000400 ) ) ;
#277 = SURFACE_SIDE_STYLE ('',( #227 ) ) ;
#278 = FILL_AREA_STYLE ('',( #226 ) ) ;
#279 = DIRECTION ( 'NONE',  ( 0.0000000000000000000, 0.0000000000000000000, -1.000000000000000000 ) ) ;
#280 = DIRECTION ( 'NONE',  ( 1.000000000000000000, 0.0000000000000000000, 0.0000000000000000000 ) ) ;
#281 = CARTESIAN_POINT ( 'NONE',  ( 100.0000000000000000, 0.0000000000000000000, 0.0000000000000000000 ) ) ;
#282 = AXIS2_PLACEMENT_3D ( 'NONE', #281, #280, #279 ) ;
#283 = CARTESIAN_POINT ( 'NONE',  ( 100.0000000000000000, 0.0000000000000000000, 3.000000000000000400 ) ) ;
#284 = AXIS2_PLACEMENT_3D ( 'NONE', #275, #246, #230 ) ;
#285 = CIRCLE ( 'NONE', #284, 2.000000000000000000 ) ;
#286 = CARTESIAN_POINT ( 'NONE',  ( 0.0000000000000000000, 0.0000000000000000000, 3.000000000000000400 ) ) ;
#287 = DIRECTION ( 'NONE',  ( -1.000000000000000000, -0.0000000000000000000, -0.0000000000000000000 ) ) ;
#288 = VECTOR ( 'NONE', #287, 1000.000000000000000 ) ;
#289 =( NAMED_UNIT ( * ) PLANE_ANGLE_UNIT ( ) SI_UNIT ( $, .RADIAN. ) );
#290 = SURFACE_STYLE_FILL_AREA ( #291 ) ;
#291 = FILL_AREA_STYLE ('',( #292 ) ) ;
#292 = FILL_AREA_STYLE_COLOUR ( '', #304 ) ;
#293 = VECTOR ( 'NONE', #257, 1000.000000000000000 ) ;
#294 =( LENGTH_UNIT ( ) NAMED_UNIT ( * ) SI_UNIT ( .MILLI., .METRE. ) );
#295 = DIRECTION ( 'NONE',  ( 0.0000000000000000000, 0.0000000000000000000, -1.000000000000000000 ) ) ;
#296 = DIRECTION ( 'NONE',  ( 1.000000000000000000, 0.0000000000000000000, 0.0000000000000000000 ) ) ;
#297 =( LENGTH_UNIT ( ) NAMED_UNIT ( * ) SI_UNIT ( .MILLI., .METRE. ) );
#298 = MECHANICAL_DESIGN_GEOMETRIC_PRESENTATION_REPRESENTATION (  '', ( #300 ), #225 ) ;
#299 = PRESENTATION_LAYER_ASSIGNMENT (  '', '', ( #300 ) ) ;
#300 = STYLED_ITEM ( 'NONE', ( #301 ), #309 ) ;
#301 = PRESENTATION_STYLE_ASSIGNMENT (( #302 ) ) ;
#302 = SURFACE_STYLE_USAGE ( .BOTH. , #303 ) ;
#303 = SURFACE_SIDE_STYLE ('',( #290 ) ) ;
#304 = COLOUR_RGB ( '',0.2470588235294117800, 0.6470588235294118000, 1.000000000000000000 ) ;
#305 = DIRECTION ( 'NONE',  ( 1.000000000000000000, 0.0000000000000000000, 0.0000000000000000000 ) ) ;
#306 = DIRECTION ( 'NONE',  ( 0.0000000000000000000, 0.0000000000000000000, 1.000000000000000000 ) ) ;
#307 = CARTESIAN_POINT ( 'NONE',  ( 0.0000000000000000000, 0.0000000000000000000, 0.0000000000000000000 ) ) ;
#308 = AXIS2_PLACEMENT_3D ( 'NONE', #307, #306, #305 ) ;
#309 = ADVANCED_BREP_SHAPE_REPRESENTATION ( '', ( #44, #308 ), #310 ) ;
#310 =( GEOMETRIC_REPRESENTATION_CONTEXT ( 3 ) GLOBAL_UNCERTAINTY_ASSIGNED_CONTEXT ( ( #311 ) ) GLOBAL_UNIT_ASSIGNED_CONTEXT ( ( #294, #289, #312 ) ) REPRESENTATION_CONTEXT ( 'NONE', 'WORKASPACE' ) );
#311 = UNCERTAINTY_MEASURE_WITH_UNIT (LENGTH_MEASURE( 1.000000000000000100E-005 ), #294, 'distance_accuracy_value', 'NONE');
#312 =( NAMED_UNIT ( * ) SI_UNIT ( $, .STERADIAN. ) SOLID_ANGLE_UNIT ( ) );
#313 = CONTEXT_DEPENDENT_SHAPE_REPRESENTATION ( #338, #332 ) ;
#314 = NEXT_ASSEMBLY_USAGE_OCCURRENCE ( 'NAUO1', ' ', ' ', #334, #316, $ ) ;
#315 = SHAPE_DEFINITION_REPRESENTATION ( #333, #214 ) ;
#316 = PRODUCT_DEFINITION ( 'UNKNOWN', '', #327, #317 ) ;
#317 = PRODUCT_DEFINITION_CONTEXT ( 'detailed design', #319, 'design' ) ;
#318 = APPLICATION_PROTOCOL_DEFINITION ( 'draft international standard', 'automotive_design', 1998, #319 ) ;
#319 = APPLICATION_CONTEXT ( 'automotive_design' ) ;
#320 = PRODUCT ( 'TU0604BU-20.step_TU3076 Tube_0604BU', 'TU0604BU-20.step_TU3076 Tube_0604BU', '', ( #321 ) ) ;
#321 = PRODUCT_CONTEXT ( 'NONE', #323, 'mechanical' ) ;
#322 = APPLICATION_PROTOCOL_DEFINITION ( 'draft international standard', 'automotive_design', 1998, #323 ) ;
#323 = APPLICATION_CONTEXT ( 'automotive_design' ) ;
#324 = APPLICATION_CONTEXT ( 'automotive_design' ) ;
#325 = PRODUCT_DEFINITION_SHAPE ( 'NONE', 'NONE',  #316 ) ;
#326 = PRODUCT_RELATED_PRODUCT_CATEGORY ( 'part', '', ( #320 ) ) ;
#327 = PRODUCT_DEFINITION_FORMATION_WITH_SPECIFIED_SOURCE ( 'ANY', '', #320, .NOT_KNOWN. ) ;
#328 = ITEM_DEFINED_TRANSFORMATION ( 'NONE', 'NONE', #209,  #308 ) ;
#329 = PRODUCT_RELATED_PRODUCT_CATEGORY ( 'part', '', ( #339 ) ) ;
#330 = PRODUCT_DEFINITION_FORMATION_WITH_SPECIFIED_SOURCE ( 'ANY', '', #339, .NOT_KNOWN. ) ;
#331 = SHAPE_DEFINITION_REPRESENTATION ( #325, #224 ) ;
#332 = PRODUCT_DEFINITION_SHAPE ( 'NONE', 'NONE',  #314 ) ;
#333 = PRODUCT_DEFINITION_SHAPE ( 'NONE', 'NONE',  #334 ) ;
#334 = PRODUCT_DEFINITION ( 'UNKNOWN', '', #330, #335 ) ;
#335 = PRODUCT_DEFINITION_CONTEXT ( 'detailed design', #337, 'design' ) ;
#336 = APPLICATION_PROTOCOL_DEFINITION ( 'draft international standard', 'automotive_design', 1998, #337 ) ;
#337 = APPLICATION_CONTEXT ( 'automotive_design' ) ;
#338 =( REPRESENTATION_RELATIONSHIP ('NONE','NONE', #214, #224 ) REPRESENTATION_RELATIONSHIP_WITH_TRANSFORMATION ( #328 )SHAPE_REPRESENTATION_RELATIONSHIP( ) );
#339 = PRODUCT ( 'TU0604BU-20.step', 'TU0604BU-20.step', '', ( #340 ) ) ;
#340 = PRODUCT_CONTEXT ( 'NONE', #324, 'mechanical' ) ;
#341 = APPLICATION_PROTOCOL_DEFINITION ( 'draft international standard', 'automotive_design', 1998, #324 ) ;
ENDSEC;
END-ISO-10303-21;
