ISO-10303-21;
HEADER;
FILE_DESCRIPTION (( 'STEP AP214' ),
    '1' );
FILE_NAME ('TU0604C-100.step.step',
    '2017-03-03T10:49:11',
    ( 'Windows User' ),
    ( '' ),
    'SwSTEP 2.0',
    'SolidWorks 2017',
    '' );
FILE_SCHEMA (( 'AUTOMOTIVE_DESIGN' ));
ENDSEC;

DATA;
#1 = ORIENTED_EDGE ( 'NONE', *, *, #285, .F. ) ;
#2 = APPLICATION_CONTEXT ( 'automotive_design' ) ;
#3 = ORIENTED_EDGE ( 'NONE', *, *, #286, .F. ) ;
#4 = ORIENTED_EDGE ( 'NONE', *, *, #279, .F. ) ;
#5 = VERTEX_POINT ( 'NONE', #16 ) ;
#6 = ORIENTED_EDGE ( 'NONE', *, *, #278, .T. ) ;
#7 = DIRECTION ( 'NONE',  ( 0.0000000000000000000, 0.0000000000000000000, 1.000000000000000000 ) ) ;
#8 = UNCERTAINTY_MEASURE_WITH_UNIT (LENGTH_MEASURE( 1.000000000000000100E-005 ), #130, 'distance_accuracy_value', 'NONE');
#9 = DIRECTION ( 'NONE',  ( 0.0000000000000000000, 0.0000000000000000000, 1.000000000000000000 ) ) ;
#10 = EDGE_LOOP ( 'NONE', ( #287, #226, #87, #88 ) ) ;
#11 = FACE_OUTER_BOUND ( 'NONE', #18, .T. ) ;
#12 = STYLED_ITEM ( 'NONE', ( #246 ), #38 ) ;
#13 = DIRECTION ( 'NONE',  ( 1.000000000000000000, 0.0000000000000000000, 0.0000000000000000000 ) ) ;
#14 = FILL_AREA_STYLE_COLOUR ( '', #101 ) ;
#15 = APPLICATION_PROTOCOL_DEFINITION ( 'draft international standard', 'automotive_design', 1998, #32 ) ;
#16 = CARTESIAN_POINT ( 'NONE',  ( 100.0000000000000000, 0.0000000000000000000, 2.000000000000000000 ) ) ;
#17 =( NAMED_UNIT ( * ) PLANE_ANGLE_UNIT ( ) SI_UNIT ( $, .RADIAN. ) );
#18 = EDGE_LOOP ( 'NONE', ( #329, #3, #264, #126 ) ) ;
#19 =( LENGTH_UNIT ( ) NAMED_UNIT ( * ) SI_UNIT ( .MILLI., .METRE. ) );
#20 = PRODUCT ( 'TU0604C-100.step', 'TU0604C-100.step', '', ( #46 ) ) ;
#21 = AXIS2_PLACEMENT_3D ( 'NONE', #102, #60, #131 ) ;
#22 = DIRECTION ( 'NONE',  ( 0.0000000000000000000, 0.0000000000000000000, 1.000000000000000000 ) ) ;
#23 = FILL_AREA_STYLE ('',( #74 ) ) ;
#24 = DIRECTION ( 'NONE',  ( 0.0000000000000000000, 0.0000000000000000000, -1.000000000000000000 ) ) ;
#25 = EDGE_LOOP ( 'NONE', ( #128, #86 ) ) ;
#26 = CARTESIAN_POINT ( 'NONE',  ( 0.0000000000000000000, 0.0000000000000000000, 0.0000000000000000000 ) ) ;
#27 = DIRECTION ( 'NONE',  ( 1.000000000000000000, 0.0000000000000000000, 0.0000000000000000000 ) ) ;
#28 = DIRECTION ( 'NONE',  ( 0.0000000000000000000, 0.0000000000000000000, -1.000000000000000000 ) ) ;
#29 = DIRECTION ( 'NONE',  ( 1.000000000000000000, 0.0000000000000000000, 0.0000000000000000000 ) ) ;
#30 =( NAMED_UNIT ( * ) PLANE_ANGLE_UNIT ( ) SI_UNIT ( $, .RADIAN. ) );
#31 = DIRECTION ( 'NONE',  ( 1.000000000000000000, 0.0000000000000000000, 0.0000000000000000000 ) ) ;
#32 = APPLICATION_CONTEXT ( 'automotive_design' ) ;
#33 = PRODUCT_DEFINITION_CONTEXT ( 'detailed design', #34, 'design' ) ;
#34 = APPLICATION_CONTEXT ( 'automotive_design' ) ;
#35 = MECHANICAL_DESIGN_GEOMETRIC_PRESENTATION_REPRESENTATION (  '', ( #12 ), #56 ) ;
#36 = SURFACE_STYLE_USAGE ( .BOTH. , #210 ) ;
#37 = CARTESIAN_POINT ( 'NONE',  ( 0.0000000000000000000, 0.0000000000000000000, 0.0000000000000000000 ) ) ;
#38 = ADVANCED_BREP_SHAPE_REPRESENTATION ( '', ( #76, #162 ), #141 ) ;
#39 = APPLICATION_PROTOCOL_DEFINITION ( 'draft international standard', 'automotive_design', 1998, #34 ) ;
#40 =( NAMED_UNIT ( * ) SI_UNIT ( $, .STERADIAN. ) SOLID_ANGLE_UNIT ( ) );
#41 = APPLICATION_PROTOCOL_DEFINITION ( 'draft international standard', 'automotive_design', 1998, #2 ) ;
#42 = CARTESIAN_POINT ( 'NONE',  ( 0.0000000000000000000, 0.0000000000000000000, 0.0000000000000000000 ) ) ;
#43 = DIRECTION ( 'NONE',  ( 0.0000000000000000000, 0.0000000000000000000, -1.000000000000000000 ) ) ;
#44 = CARTESIAN_POINT ( 'NONE',  ( 0.0000000000000000000, 0.0000000000000000000, 0.0000000000000000000 ) ) ;
#45 = UNCERTAINTY_MEASURE_WITH_UNIT (LENGTH_MEASURE( 1.000000000000000100E-005 ), #49, 'distance_accuracy_value', 'NONE');
#46 = PRODUCT_CONTEXT ( 'NONE', #32, 'mechanical' ) ;
#47 = CARTESIAN_POINT ( 'NONE',  ( 100.0000000000000000, 0.0000000000000000000, 0.0000000000000000000 ) ) ;
#48 =( LENGTH_UNIT ( ) NAMED_UNIT ( * ) SI_UNIT ( .MILLI., .METRE. ) );
#49 =( LENGTH_UNIT ( ) NAMED_UNIT ( * ) SI_UNIT ( .MILLI., .METRE. ) );
#50 =( LENGTH_UNIT ( ) NAMED_UNIT ( * ) SI_UNIT ( .MILLI., .METRE. ) );
#51 = CARTESIAN_POINT ( 'NONE',  ( 100.0000000000000000, 0.0000000000000000000, 0.0000000000000000000 ) ) ;
#52 = CYLINDRICAL_SURFACE ( 'NONE', #338, 3.000000000000000400 ) ;
#53 = UNCERTAINTY_MEASURE_WITH_UNIT (LENGTH_MEASURE( 1.000000000000000100E-005 ), #19, 'distance_accuracy_value', 'NONE');
#54 = SURFACE_STYLE_USAGE ( .BOTH. , #137 ) ;
#55 = DIRECTION ( 'NONE',  ( 1.000000000000000000, 0.0000000000000000000, 0.0000000000000000000 ) ) ;
#56 =( GEOMETRIC_REPRESENTATION_CONTEXT ( 3 ) GLOBAL_UNCERTAINTY_ASSIGNED_CONTEXT ( ( #8 ) ) GLOBAL_UNIT_ASSIGNED_CONTEXT ( ( #130, #153, #66 ) ) REPRESENTATION_CONTEXT ( 'NONE', 'WORKASPACE' ) );
#57 = FILL_AREA_STYLE ('',( #273 ) ) ;
#58 = UNCERTAINTY_MEASURE_WITH_UNIT (LENGTH_MEASURE( 1.000000000000000100E-005 ), #134, 'distance_accuracy_value', 'NONE');
#59 = CARTESIAN_POINT ( 'NONE',  ( 0.0000000000000000000, 2.449293598294706400E-016, -2.000000000000000000 ) ) ;
#60 = DIRECTION ( 'NONE',  ( 0.0000000000000000000, 0.0000000000000000000, 1.000000000000000000 ) ) ;
#61 = FILL_AREA_STYLE ('',( #132 ) ) ;
#62 = DIRECTION ( 'NONE',  ( 0.0000000000000000000, 0.0000000000000000000, 1.000000000000000000 ) ) ;
#63 = DIRECTION ( 'NONE',  ( 1.000000000000000000, 0.0000000000000000000, 0.0000000000000000000 ) ) ;
#64 = CARTESIAN_POINT ( 'NONE',  ( 0.0000000000000000000, 0.0000000000000000000, 0.0000000000000000000 ) ) ;
#65 = DIRECTION ( 'NONE',  ( 0.0000000000000000000, 0.0000000000000000000, -1.000000000000000000 ) ) ;
#66 =( NAMED_UNIT ( * ) SI_UNIT ( $, .STERADIAN. ) SOLID_ANGLE_UNIT ( ) );
#67 = UNCERTAINTY_MEASURE_WITH_UNIT (LENGTH_MEASURE( 1.000000000000000100E-005 ), #154, 'distance_accuracy_value', 'NONE');
#68 = CARTESIAN_POINT ( 'NONE',  ( 0.0000000000000000000, 0.0000000000000000000, 0.0000000000000000000 ) ) ;
#69 = DIRECTION ( 'NONE',  ( 0.0000000000000000000, 0.0000000000000000000, 1.000000000000000000 ) ) ;
#70 = CARTESIAN_POINT ( 'NONE',  ( 100.0000000000000000, 0.0000000000000000000, 3.000000000000000400 ) ) ;
#71 = SURFACE_STYLE_USAGE ( .BOTH. , #260 ) ;
#72 =( NAMED_UNIT ( * ) PLANE_ANGLE_UNIT ( ) SI_UNIT ( $, .RADIAN. ) );
#73 =( NAMED_UNIT ( * ) SI_UNIT ( $, .STERADIAN. ) SOLID_ANGLE_UNIT ( ) );
#74 = FILL_AREA_STYLE_COLOUR ( '', #174 ) ;
#75 = SURFACE_STYLE_USAGE ( .BOTH. , #121 ) ;
#76 = MANIFOLD_SOLID_BREP ( 'Tube', #116 ) ;
#77 = COLOUR_RGB ( '',0.9686274509803921600, 1.000000000000000000, 0.9803921568627450600 ) ;
#78 = UNCERTAINTY_MEASURE_WITH_UNIT (LENGTH_MEASURE( 1.000000000000000100E-005 ), #181, 'distance_accuracy_value', 'NONE');
#79 = CIRCLE ( 'NONE', #157, 2.000000000000000000 ) ;
#80 = VECTOR ( 'NONE', #195, 1000.000000000000000 ) ;
#81 = CIRCLE ( 'NONE', #173, 2.000000000000000000 ) ;
#82 = CIRCLE ( 'NONE', #167, 3.000000000000000400 ) ;
#83 = CIRCLE ( 'NONE', #155, 3.000000000000000400 ) ;
#84 = FILL_AREA_STYLE ('',( #14 ) ) ;
#85 = SHAPE_REPRESENTATION ( 'TU0604C-100.step_TU3076 Tube_0604C', ( #162 ), #141 ) ;
#86 = ORIENTED_EDGE ( 'NONE', *, *, #289, .T. ) ;
#87 = ORIENTED_EDGE ( 'NONE', *, *, #279, .T. ) ;
#88 = ORIENTED_EDGE ( 'NONE', *, *, #289, .F. ) ;
#89 = VECTOR ( 'NONE', #234, 1000.000000000000000 ) ;
#90 = FILL_AREA_STYLE ('',( #265 ) ) ;
#91 = FACE_BOUND ( 'NONE', #25, .T. ) ;
#92 = PRESENTATION_STYLE_ASSIGNMENT (( #118 ) ) ;
#93 = ORIENTED_EDGE ( 'NONE', *, *, #290, .F. ) ;
#94 =( NAMED_UNIT ( * ) SI_UNIT ( $, .STERADIAN. ) SOLID_ANGLE_UNIT ( ) );
#95 = SURFACE_SIDE_STYLE ('',( #165 ) ) ;
#96 = COLOUR_RGB ( '',0.0000000000000000000, 0.5843137254901961100, 0.9058823529411764700 ) ;
#97 = SURFACE_STYLE_FILL_AREA ( #84 ) ;
#98 = PRODUCT_CONTEXT ( 'NONE', #198, 'mechanical' ) ;
#99 = ORIENTED_EDGE ( 'NONE', *, *, #284, .T. ) ;
#100 =( GEOMETRIC_REPRESENTATION_CONTEXT ( 3 ) GLOBAL_UNCERTAINTY_ASSIGNED_CONTEXT ( ( #45 ) ) GLOBAL_UNIT_ASSIGNED_CONTEXT ( ( #49, #293, #337 ) ) REPRESENTATION_CONTEXT ( 'NONE', 'WORKASPACE' ) );
#101 = COLOUR_RGB ( '',0.9686274509803921600, 1.000000000000000000, 0.9803921568627450600 ) ;
#102 = CARTESIAN_POINT ( 'NONE',  ( 0.0000000000000000000, 0.0000000000000000000, 0.0000000000000000000 ) ) ;
#103 = VECTOR ( 'NONE', #231, 1000.000000000000000 ) ;
#104 = VECTOR ( 'NONE', #227, 1000.000000000000000 ) ;
#105 = PRESENTATION_STYLE_ASSIGNMENT (( #36 ) ) ;
#106 = VERTEX_POINT ( 'NONE', #325 ) ;
#107 = DIRECTION ( 'NONE',  ( 1.000000000000000000, 0.0000000000000000000, 0.0000000000000000000 ) ) ;
#108 = DIRECTION ( 'NONE',  ( -1.000000000000000000, -0.0000000000000000000, -0.0000000000000000000 ) ) ;
#109 = FACE_OUTER_BOUND ( 'NONE', #146, .T. ) ;
#110 = CIRCLE ( 'NONE', #151, 2.000000000000000000 ) ;
#111 = PRESENTATION_STYLE_ASSIGNMENT (( #71 ) ) ;
#112 = LINE ( 'NONE', #238, #104 ) ;
#113 = LINE ( 'NONE', #237, #80 ) ;
#114 = UNCERTAINTY_MEASURE_WITH_UNIT (LENGTH_MEASURE( 1.000000000000000100E-005 ), #50, 'distance_accuracy_value', 'NONE');
#115 = FILL_AREA_STYLE ('',( #311 ) ) ;
#116 = CLOSED_SHELL ( 'NONE', ( #243, #266, #216, #242, #270, #239 ) ) ;
#117 =( NAMED_UNIT ( * ) SI_UNIT ( $, .STERADIAN. ) SOLID_ANGLE_UNIT ( ) );
#118 = SURFACE_STYLE_USAGE ( .BOTH. , #207 ) ;
#119 = SURFACE_STYLE_USAGE ( .BOTH. , #123 ) ;
#120 = CYLINDRICAL_SURFACE ( 'NONE', #224, 2.000000000000000000 ) ;
#121 = SURFACE_SIDE_STYLE ('',( #247 ) ) ;
#122 = CIRCLE ( 'NONE', #184, 2.000000000000000000 ) ;
#123 = SURFACE_SIDE_STYLE ('',( #191 ) ) ;
#124 = LINE ( 'NONE', #254, #89 ) ;
#125 = SURFACE_STYLE_FILL_AREA ( #57 ) ;
#126 = ORIENTED_EDGE ( 'NONE', *, *, #288, .T. ) ;
#127 = DIRECTION ( 'NONE',  ( 1.000000000000000000, 0.0000000000000000000, 0.0000000000000000000 ) ) ;
#128 = ORIENTED_EDGE ( 'NONE', *, *, #282, .T. ) ;
#129 =( NAMED_UNIT ( * ) SI_UNIT ( $, .STERADIAN. ) SOLID_ANGLE_UNIT ( ) );
#130 =( LENGTH_UNIT ( ) NAMED_UNIT ( * ) SI_UNIT ( .MILLI., .METRE. ) );
#131 = DIRECTION ( 'NONE',  ( 1.000000000000000000, 0.0000000000000000000, 0.0000000000000000000 ) ) ;
#132 = FILL_AREA_STYLE_COLOUR ( '', #250 ) ;
#133 = CARTESIAN_POINT ( 'NONE',  ( 108.4852813742385700, 0.0000000000000000000, 0.0000000000000000000 ) ) ;
#134 =( LENGTH_UNIT ( ) NAMED_UNIT ( * ) SI_UNIT ( .MILLI., .METRE. ) );
#135 = PRODUCT_DEFINITION_CONTEXT ( 'detailed design', #2, 'design' ) ;
#136 =( LENGTH_UNIT ( ) NAMED_UNIT ( * ) SI_UNIT ( .MILLI., .METRE. ) );
#137 = SURFACE_SIDE_STYLE ('',( #97 ) ) ;
#138 =( NAMED_UNIT ( * ) SI_UNIT ( $, .STERADIAN. ) SOLID_ANGLE_UNIT ( ) );
#139 = SURFACE_STYLE_USAGE ( .BOTH. , #277 ) ;
#140 = DIRECTION ( 'NONE',  ( -1.000000000000000000, -0.0000000000000000000, -0.0000000000000000000 ) ) ;
#141 =( GEOMETRIC_REPRESENTATION_CONTEXT ( 3 ) GLOBAL_UNCERTAINTY_ASSIGNED_CONTEXT ( ( #114 ) ) GLOBAL_UNIT_ASSIGNED_CONTEXT ( ( #50, #305, #117 ) ) REPRESENTATION_CONTEXT ( 'NONE', 'WORKASPACE' ) );
#142 = CARTESIAN_POINT ( 'NONE',  ( 108.4852813742385700, 0.0000000000000000000, 0.0000000000000000000 ) ) ;
#143 = SHAPE_REPRESENTATION ( 'TU0604C-100.step', ( #161, #149 ), #145 ) ;
#144 =( NAMED_UNIT ( * ) PLANE_ANGLE_UNIT ( ) SI_UNIT ( $, .RADIAN. ) );
#145 =( GEOMETRIC_REPRESENTATION_CONTEXT ( 3 ) GLOBAL_UNCERTAINTY_ASSIGNED_CONTEXT ( ( #78 ) ) GLOBAL_UNIT_ASSIGNED_CONTEXT ( ( #181, #17, #73 ) ) REPRESENTATION_CONTEXT ( 'NONE', 'WORKASPACE' ) );
#146 = EDGE_LOOP ( 'NONE', ( #164, #215 ) ) ;
#147 =( LENGTH_UNIT ( ) NAMED_UNIT ( * ) SI_UNIT ( .MILLI., .METRE. ) );
#148 = CARTESIAN_POINT ( 'NONE',  ( 0.0000000000000000000, 0.0000000000000000000, 3.000000000000000400 ) ) ;
#149 = AXIS2_PLACEMENT_3D ( 'NONE', #44, #62, #107 ) ;
#150 = PRODUCT_RELATED_PRODUCT_CATEGORY ( 'part', '', ( #20 ) ) ;
#151 = AXIS2_PLACEMENT_3D ( 'NONE', #232, #233, #236 ) ;
#152 =( NAMED_UNIT ( * ) PLANE_ANGLE_UNIT ( ) SI_UNIT ( $, .RADIAN. ) );
#153 =( NAMED_UNIT ( * ) PLANE_ANGLE_UNIT ( ) SI_UNIT ( $, .RADIAN. ) );
#154 =( LENGTH_UNIT ( ) NAMED_UNIT ( * ) SI_UNIT ( .MILLI., .METRE. ) );
#155 = AXIS2_PLACEMENT_3D ( 'NONE', #251, #252, #253 ) ;
#156 = STYLED_ITEM ( 'NONE', ( #200 ), #270 ) ;
#157 = AXIS2_PLACEMENT_3D ( 'NONE', #47, #29, #24 ) ;
#158 = FACE_BOUND ( 'NONE', #323, .T. ) ;
#159 = AXIS2_PLACEMENT_3D ( 'NONE', #51, #55, #65 ) ;
#160 =( GEOMETRIC_REPRESENTATION_CONTEXT ( 3 ) GLOBAL_UNCERTAINTY_ASSIGNED_CONTEXT ( ( #67 ) ) GLOBAL_UNIT_ASSIGNED_CONTEXT ( ( #154, #72, #339 ) ) REPRESENTATION_CONTEXT ( 'NONE', 'WORKASPACE' ) );
#161 = AXIS2_PLACEMENT_3D ( 'NONE', #42, #9, #127 ) ;
#162 = AXIS2_PLACEMENT_3D ( 'NONE', #37, #22, #13 ) ;
#163 = PRODUCT_DEFINITION ( 'UNKNOWN', '', #180, #33 ) ;
#164 = ORIENTED_EDGE ( 'NONE', *, *, #288, .F. ) ;
#165 = SURFACE_STYLE_FILL_AREA ( #115 ) ;
#166 = PRODUCT_DEFINITION ( 'UNKNOWN', '', #175, #135 ) ;
#167 = AXIS2_PLACEMENT_3D ( 'NONE', #64, #63, #43 ) ;
#168 = PRODUCT_RELATED_PRODUCT_CATEGORY ( 'part', '', ( #223 ) ) ;
#169 = PRESENTATION_LAYER_ASSIGNMENT (  '', '', ( #156 ) ) ;
#170 = FILL_AREA_STYLE_COLOUR ( '', #96 ) ;
#171 = AXIS2_PLACEMENT_3D ( 'NONE', #271, #258, #263 ) ;
#172 = VERTEX_POINT ( 'NONE', #148 ) ;
#173 = AXIS2_PLACEMENT_3D ( 'NONE', #26, #27, #28 ) ;
#174 = COLOUR_RGB ( '',0.9686274509803921600, 1.000000000000000000, 0.9803921568627450600 ) ;
#175 = PRODUCT_DEFINITION_FORMATION_WITH_SPECIFIED_SOURCE ( 'ANY', '', #223, .NOT_KNOWN. ) ;
#176 = VERTEX_POINT ( 'NONE', #235 ) ;
#177 = DIRECTION ( 'NONE',  ( 1.000000000000000000, 0.0000000000000000000, 0.0000000000000000000 ) ) ;
#178 = AXIS2_PLACEMENT_3D ( 'NONE', #142, #225, #196 ) ;
#179 = FACE_OUTER_BOUND ( 'NONE', #291, .T. ) ;
#180 = PRODUCT_DEFINITION_FORMATION_WITH_SPECIFIED_SOURCE ( 'ANY', '', #20, .NOT_KNOWN. ) ;
#181 =( LENGTH_UNIT ( ) NAMED_UNIT ( * ) SI_UNIT ( .MILLI., .METRE. ) );
#182 = SURFACE_STYLE_FILL_AREA ( #23 ) ;
#183 = UNCERTAINTY_MEASURE_WITH_UNIT (LENGTH_MEASURE( 1.000000000000000100E-005 ), #136, 'distance_accuracy_value', 'NONE');
#184 = AXIS2_PLACEMENT_3D ( 'NONE', #244, #245, #248 ) ;
#185 =( NAMED_UNIT ( * ) SI_UNIT ( $, .STERADIAN. ) SOLID_ANGLE_UNIT ( ) );
#186 = PRESENTATION_STYLE_ASSIGNMENT (( #119 ) ) ;
#187 = CYLINDRICAL_SURFACE ( 'NONE', #307, 3.000000000000000400 ) ;
#188 = VERTEX_POINT ( 'NONE', #199 ) ;
#189 = COLOUR_RGB ( '',0.9686274509803921600, 1.000000000000000000, 0.9803921568627450600 ) ;
#190 = ORIENTED_EDGE ( 'NONE', *, *, #281, .F. ) ;
#191 = SURFACE_STYLE_FILL_AREA ( #218 ) ;
#192 = PRODUCT_DEFINITION_SHAPE ( 'NONE', 'NONE',  #166 ) ;
#193 = PRESENTATION_STYLE_ASSIGNMENT (( #214 ) ) ;
#194 = FACE_OUTER_BOUND ( 'NONE', #220, .T. ) ;
#195 = DIRECTION ( 'NONE',  ( -1.000000000000000000, -0.0000000000000000000, -0.0000000000000000000 ) ) ;
#196 = DIRECTION ( 'NONE',  ( 0.0000000000000000000, 0.0000000000000000000, 1.000000000000000000 ) ) ;
#197 = FACE_OUTER_BOUND ( 'NONE', #10, .T. ) ;
#198 = APPLICATION_CONTEXT ( 'automotive_design' ) ;
#199 = CARTESIAN_POINT ( 'NONE',  ( 0.0000000000000000000, 3.673940397442060400E-016, -3.000000000000000400 ) ) ;
#200 = PRESENTATION_STYLE_ASSIGNMENT (( #54 ) ) ;
#201 = SHAPE_REPRESENTATION_RELATIONSHIP ( 'NONE' , 'NONE' ,  #85, #38 ) ;
#202 = CARTESIAN_POINT ( 'NONE',  ( 100.0000000000000000, 0.0000000000000000000, 0.0000000000000000000 ) ) ;
#203 = CIRCLE ( 'NONE', #159, 3.000000000000000400 ) ;
#204 = CYLINDRICAL_SURFACE ( 'NONE', #178, 2.000000000000000000 ) ;
#205 = ORIENTED_EDGE ( 'NONE', *, *, #281, .T. ) ;
#206 = VERTEX_POINT ( 'NONE', #59 ) ;
#207 = SURFACE_SIDE_STYLE ('',( #182 ) ) ;
#208 = LINE ( 'NONE', #228, #103 ) ;
#209 = COLOUR_RGB ( '',0.9686274509803921600, 1.000000000000000000, 0.9803921568627450600 ) ;
#210 = SURFACE_SIDE_STYLE ('',( #212 ) ) ;
#211 =( NAMED_UNIT ( * ) PLANE_ANGLE_UNIT ( ) SI_UNIT ( $, .RADIAN. ) );
#212 = SURFACE_STYLE_FILL_AREA ( #326 ) ;
#213 = ORIENTED_EDGE ( 'NONE', *, *, #286, .T. ) ;
#214 = SURFACE_STYLE_USAGE ( .BOTH. , #95 ) ;
#215 = ORIENTED_EDGE ( 'NONE', *, *, #284, .F. ) ;
#216 = ADVANCED_FACE ( 'NONE', ( #11 ), #187, .T. ) ;
#217 = UNCERTAINTY_MEASURE_WITH_UNIT (LENGTH_MEASURE( 1.000000000000000100E-005 ), #147, 'distance_accuracy_value', 'NONE');
#218 = FILL_AREA_STYLE ('',( #240 ) ) ;
#219 =( NAMED_UNIT ( * ) PLANE_ANGLE_UNIT ( ) SI_UNIT ( $, .RADIAN. ) );
#220 = EDGE_LOOP ( 'NONE', ( #190, #332, #99, #1 ) ) ;
#221 = ORIENTED_EDGE ( 'NONE', *, *, #280, .F. ) ;
#222 = CIRCLE ( 'NONE', #171, 3.000000000000000400 ) ;
#223 = PRODUCT ( 'TU0604C-100.step_TU3076 Tube_0604C', 'TU0604C-100.step_TU3076 Tube_0604C', '', ( #98 ) ) ;
#224 = AXIS2_PLACEMENT_3D ( 'NONE', #302, #328, #7 ) ;
#225 = DIRECTION ( 'NONE',  ( -1.000000000000000000, -0.0000000000000000000, -0.0000000000000000000 ) ) ;
#226 = ORIENTED_EDGE ( 'NONE', *, *, #290, .T. ) ;
#227 = DIRECTION ( 'NONE',  ( -1.000000000000000000, -0.0000000000000000000, -0.0000000000000000000 ) ) ;
#228 = CARTESIAN_POINT ( 'NONE',  ( 108.4852813742385700, 2.449293598294706400E-016, -2.000000000000000000 ) ) ;
#229 = DIRECTION ( 'NONE',  ( 0.0000000000000000000, 0.0000000000000000000, -1.000000000000000000 ) ) ;
#230 = CARTESIAN_POINT ( 'NONE',  ( 108.4852813742385700, 0.0000000000000000000, 0.0000000000000000000 ) ) ;
#231 = DIRECTION ( 'NONE',  ( -1.000000000000000000, -0.0000000000000000000, -0.0000000000000000000 ) ) ;
#232 = CARTESIAN_POINT ( 'NONE',  ( 100.0000000000000000, 0.0000000000000000000, 0.0000000000000000000 ) ) ;
#233 = DIRECTION ( 'NONE',  ( 1.000000000000000000, 0.0000000000000000000, 0.0000000000000000000 ) ) ;
#234 = DIRECTION ( 'NONE',  ( -1.000000000000000000, -0.0000000000000000000, -0.0000000000000000000 ) ) ;
#235 = CARTESIAN_POINT ( 'NONE',  ( 100.0000000000000000, 2.449293598294706400E-016, -2.000000000000000000 ) ) ;
#236 = DIRECTION ( 'NONE',  ( 0.0000000000000000000, 0.0000000000000000000, -1.000000000000000000 ) ) ;
#237 = CARTESIAN_POINT ( 'NONE',  ( 108.4852813742385700, 0.0000000000000000000, 2.000000000000000000 ) ) ;
#238 = CARTESIAN_POINT ( 'NONE',  ( 108.4852813742385700, 3.673940397442060400E-016, -3.000000000000000400 ) ) ;
#239 = ADVANCED_FACE ( 'NONE', ( #158, #179 ), #333, .T. ) ;
#240 = FILL_AREA_STYLE_COLOUR ( '', #294 ) ;
#241 = UNCERTAINTY_MEASURE_WITH_UNIT (LENGTH_MEASURE( 1.000000000000000100E-005 ), #48, 'distance_accuracy_value', 'NONE');
#242 = ADVANCED_FACE ( 'NONE', ( #109, #91 ), #331, .F. ) ;
#243 = ADVANCED_FACE ( 'NONE', ( #320 ), #120, .F. ) ;
#244 = CARTESIAN_POINT ( 'NONE',  ( 0.0000000000000000000, 0.0000000000000000000, 0.0000000000000000000 ) ) ;
#245 = DIRECTION ( 'NONE',  ( 1.000000000000000000, 0.0000000000000000000, 0.0000000000000000000 ) ) ;
#246 = PRESENTATION_STYLE_ASSIGNMENT (( #75 ) ) ;
#247 = SURFACE_STYLE_FILL_AREA ( #61 ) ;
#248 = DIRECTION ( 'NONE',  ( 0.0000000000000000000, 0.0000000000000000000, -1.000000000000000000 ) ) ;
#249 = EDGE_LOOP ( 'NONE', ( #327, #6, #330, #4 ) ) ;
#250 = COLOUR_RGB ( '',0.9686274509803921600, 1.000000000000000000, 0.9803921568627450600 ) ;
#251 = CARTESIAN_POINT ( 'NONE',  ( 100.0000000000000000, 0.0000000000000000000, 0.0000000000000000000 ) ) ;
#252 = DIRECTION ( 'NONE',  ( 1.000000000000000000, 0.0000000000000000000, 0.0000000000000000000 ) ) ;
#253 = DIRECTION ( 'NONE',  ( 0.0000000000000000000, 0.0000000000000000000, -1.000000000000000000 ) ) ;
#254 = CARTESIAN_POINT ( 'NONE',  ( 108.4852813742385700, 0.0000000000000000000, 3.000000000000000400 ) ) ;
#255 = SHAPE_DEFINITION_REPRESENTATION ( #275, #143 ) ;
#256 =( REPRESENTATION_RELATIONSHIP ('NONE','NONE', #143, #85 ) REPRESENTATION_RELATIONSHIP_WITH_TRANSFORMATION ( #257 )SHAPE_REPRESENTATION_RELATIONSHIP( ) );
#257 = ITEM_DEFINED_TRANSFORMATION ( 'NONE', 'NONE', #149,  #162 ) ;
#258 = DIRECTION ( 'NONE',  ( 1.000000000000000000, 0.0000000000000000000, 0.0000000000000000000 ) ) ;
#259 = PRESENTATION_STYLE_ASSIGNMENT (( #139 ) ) ;
#260 = SURFACE_SIDE_STYLE ('',( #335 ) ) ;
#261 = SHAPE_DEFINITION_REPRESENTATION ( #192, #85 ) ;
#262 = APPLICATION_PROTOCOL_DEFINITION ( 'draft international standard', 'automotive_design', 1998, #198 ) ;
#263 = DIRECTION ( 'NONE',  ( 0.0000000000000000000, 0.0000000000000000000, -1.000000000000000000 ) ) ;
#264 = ORIENTED_EDGE ( 'NONE', *, *, #285, .T. ) ;
#265 = FILL_AREA_STYLE_COLOUR ( '', #77 ) ;
#266 = ADVANCED_FACE ( 'NONE', ( #194 ), #52, .T. ) ;
#267 = PRODUCT_DEFINITION_SHAPE ( 'NONE', 'NONE',  #341 ) ;
#268 = DIRECTION ( 'NONE',  ( 0.0000000000000000000, 0.0000000000000000000, -1.000000000000000000 ) ) ;
#269 = CONTEXT_DEPENDENT_SHAPE_REPRESENTATION ( #256, #267 ) ;
#270 = ADVANCED_FACE ( 'NONE', ( #197 ), #204, .F. ) ;
#271 = CARTESIAN_POINT ( 'NONE',  ( 0.0000000000000000000, 0.0000000000000000000, 0.0000000000000000000 ) ) ;
#272 = DIRECTION ( 'NONE',  ( 0.0000000000000000000, 0.0000000000000000000, 1.000000000000000000 ) ) ;
#273 = FILL_AREA_STYLE_COLOUR ( '', #209 ) ;
#274 = VERTEX_POINT ( 'NONE', #340 ) ;
#275 = PRODUCT_DEFINITION_SHAPE ( 'NONE', 'NONE',  #163 ) ;
#276 = PRESENTATION_LAYER_ASSIGNMENT (  '', '', ( #12 ) ) ;
#277 = SURFACE_SIDE_STYLE ('',( #125 ) ) ;
#278 = EDGE_CURVE ( 'NONE', #176, #206, #208, .T. ) ;
#279 = EDGE_CURVE ( 'NONE', #5, #274, #113, .T. ) ;
#280 = EDGE_CURVE ( 'NONE', #5, #176, #110, .T. ) ;
#281 = EDGE_CURVE ( 'NONE', #106, #297, #83, .T. ) ;
#282 = EDGE_CURVE ( 'NONE', #274, #206, #122, .T. ) ;
#283 = EDGE_CURVE ( 'NONE', #106, #188, #112, .T. ) ;
#284 = EDGE_CURVE ( 'NONE', #188, #172, #222, .T. ) ;
#285 = EDGE_CURVE ( 'NONE', #297, #172, #124, .T. ) ;
#286 = EDGE_CURVE ( 'NONE', #297, #106, #203, .T. ) ;
#287 = ORIENTED_EDGE ( 'NONE', *, *, #278, .F. ) ;
#288 = EDGE_CURVE ( 'NONE', #172, #188, #82, .T. ) ;
#289 = EDGE_CURVE ( 'NONE', #206, #274, #81, .T. ) ;
#290 = EDGE_CURVE ( 'NONE', #176, #5, #79, .T. ) ;
#291 = EDGE_LOOP ( 'NONE', ( #213, #205 ) ) ;
#292 = STYLED_ITEM ( 'NONE', ( #105 ), #76 ) ;
#293 =( NAMED_UNIT ( * ) PLANE_ANGLE_UNIT ( ) SI_UNIT ( $, .RADIAN. ) );
#294 = COLOUR_RGB ( '',0.9686274509803921600, 1.000000000000000000, 0.9803921568627450600 ) ;
#295 =( GEOMETRIC_REPRESENTATION_CONTEXT ( 3 ) GLOBAL_UNCERTAINTY_ASSIGNED_CONTEXT ( ( #53 ) ) GLOBAL_UNIT_ASSIGNED_CONTEXT ( ( #19, #144, #40 ) ) REPRESENTATION_CONTEXT ( 'NONE', 'WORKASPACE' ) );
#296 = MECHANICAL_DESIGN_GEOMETRIC_PRESENTATION_REPRESENTATION (  '', ( #292 ), #295 ) ;
#297 = VERTEX_POINT ( 'NONE', #70 ) ;
#298 = PRESENTATION_LAYER_ASSIGNMENT (  '', '', ( #292 ) ) ;
#299 = STYLED_ITEM ( 'NONE', ( #259 ), #216 ) ;
#300 =( GEOMETRIC_REPRESENTATION_CONTEXT ( 3 ) GLOBAL_UNCERTAINTY_ASSIGNED_CONTEXT ( ( #183 ) ) GLOBAL_UNIT_ASSIGNED_CONTEXT ( ( #136, #152, #138 ) ) REPRESENTATION_CONTEXT ( 'NONE', 'WORKASPACE' ) );
#301 = MECHANICAL_DESIGN_GEOMETRIC_PRESENTATION_REPRESENTATION (  '', ( #299 ), #300 ) ;
#302 = CARTESIAN_POINT ( 'NONE',  ( 108.4852813742385700, 0.0000000000000000000, 0.0000000000000000000 ) ) ;
#303 = PRESENTATION_LAYER_ASSIGNMENT (  '', '', ( #299 ) ) ;
#304 = PRESENTATION_LAYER_ASSIGNMENT (  '', '', ( #308 ) ) ;
#305 =( NAMED_UNIT ( * ) PLANE_ANGLE_UNIT ( ) SI_UNIT ( $, .RADIAN. ) );
#306 = PRESENTATION_LAYER_ASSIGNMENT (  '', '', ( #312 ) ) ;
#307 = AXIS2_PLACEMENT_3D ( 'NONE', #230, #140, #69 ) ;
#308 = STYLED_ITEM ( 'NONE', ( #193 ), #239 ) ;
#309 = AXIS2_PLACEMENT_3D ( 'NONE', #202, #177, #268 ) ;
#310 =( GEOMETRIC_REPRESENTATION_CONTEXT ( 3 ) GLOBAL_UNCERTAINTY_ASSIGNED_CONTEXT ( ( #241 ) ) GLOBAL_UNIT_ASSIGNED_CONTEXT ( ( #48, #211, #185 ) ) REPRESENTATION_CONTEXT ( 'NONE', 'WORKASPACE' ) );
#311 = FILL_AREA_STYLE_COLOUR ( '', #189 ) ;
#312 = STYLED_ITEM ( 'NONE', ( #92 ), #242 ) ;
#313 = MECHANICAL_DESIGN_GEOMETRIC_PRESENTATION_REPRESENTATION (  '', ( #308 ), #310 ) ;
#314 = STYLED_ITEM ( 'NONE', ( #186 ), #243 ) ;
#315 = AXIS2_PLACEMENT_3D ( 'NONE', #68, #31, #229 ) ;
#316 = PRESENTATION_LAYER_ASSIGNMENT (  '', '', ( #314 ) ) ;
#317 = MECHANICAL_DESIGN_GEOMETRIC_PRESENTATION_REPRESENTATION (  '', ( #322 ), #160 ) ;
#318 = MECHANICAL_DESIGN_GEOMETRIC_PRESENTATION_REPRESENTATION (  '', ( #312 ), #100 ) ;
#319 =( GEOMETRIC_REPRESENTATION_CONTEXT ( 3 ) GLOBAL_UNCERTAINTY_ASSIGNED_CONTEXT ( ( #58 ) ) GLOBAL_UNIT_ASSIGNED_CONTEXT ( ( #134, #30, #94 ) ) REPRESENTATION_CONTEXT ( 'NONE', 'WORKASPACE' ) );
#320 = FACE_OUTER_BOUND ( 'NONE', #249, .T. ) ;
#321 = PRESENTATION_LAYER_ASSIGNMENT (  '', '', ( #322 ) ) ;
#322 = STYLED_ITEM ( 'NONE', ( #111 ), #266 ) ;
#323 = EDGE_LOOP ( 'NONE', ( #221, #93 ) ) ;
#324 = MECHANICAL_DESIGN_GEOMETRIC_PRESENTATION_REPRESENTATION (  '', ( #314 ), #319 ) ;
#325 = CARTESIAN_POINT ( 'NONE',  ( 100.0000000000000000, 3.673940397442060400E-016, -3.000000000000000400 ) ) ;
#326 = FILL_AREA_STYLE ('',( #170 ) ) ;
#327 = ORIENTED_EDGE ( 'NONE', *, *, #280, .T. ) ;
#328 = DIRECTION ( 'NONE',  ( -1.000000000000000000, -0.0000000000000000000, -0.0000000000000000000 ) ) ;
#329 = ORIENTED_EDGE ( 'NONE', *, *, #283, .F. ) ;
#330 = ORIENTED_EDGE ( 'NONE', *, *, #282, .F. ) ;
#331 = PLANE ( 'NONE',  #315 ) ;
#332 = ORIENTED_EDGE ( 'NONE', *, *, #283, .T. ) ;
#333 = PLANE ( 'NONE',  #309 ) ;
#334 = MECHANICAL_DESIGN_GEOMETRIC_PRESENTATION_REPRESENTATION (  '', ( #156 ), #336 ) ;
#335 = SURFACE_STYLE_FILL_AREA ( #90 ) ;
#336 =( GEOMETRIC_REPRESENTATION_CONTEXT ( 3 ) GLOBAL_UNCERTAINTY_ASSIGNED_CONTEXT ( ( #217 ) ) GLOBAL_UNIT_ASSIGNED_CONTEXT ( ( #147, #219, #129 ) ) REPRESENTATION_CONTEXT ( 'NONE', 'WORKASPACE' ) );
#337 =( NAMED_UNIT ( * ) SI_UNIT ( $, .STERADIAN. ) SOLID_ANGLE_UNIT ( ) );
#338 = AXIS2_PLACEMENT_3D ( 'NONE', #133, #108, #272 ) ;
#339 =( NAMED_UNIT ( * ) SI_UNIT ( $, .STERADIAN. ) SOLID_ANGLE_UNIT ( ) );
#340 = CARTESIAN_POINT ( 'NONE',  ( 0.0000000000000000000, 0.0000000000000000000, 2.000000000000000000 ) ) ;
#341 = NEXT_ASSEMBLY_USAGE_OCCURRENCE ( 'NAUO1', ' ', ' ', #163, #166, $ ) ;
ENDSEC;
END-ISO-10303-21;
