ISO-10303-21;
HEADER;
FILE_DESCRIPTION (( 'STEP AP214' ),
    '1' );
FILE_NAME ('TU0805C-20.step.step',
    '2013-02-20T18:46:17',
    ( 'Windows User' ),
    ( '' ),
    'SwSTEP 2.0',
    'SolidWorks 2013',
    '' );
FILE_SCHEMA (( 'AUTOMOTIVE_DESIGN' ));
ENDSEC;

DATA;
#1 = APPLICATION_PROTOCOL_DEFINITION ( 'draft international standard', 'automotive_design', 1998, #283 ) ;
#2 = ORIENTED_EDGE ( 'NONE', *, *, #252, .F. ) ;
#3 = UNCERTAINTY_MEASURE_WITH_UNIT (LENGTH_MEASURE( 1.000000000000000100E-005 ), #4, 'distance_accuracy_value', 'NONE');
#4 =( LENGTH_UNIT ( ) NAMED_UNIT ( * ) SI_UNIT ( .MILLI., .METRE. ) );
#5 = FACE_OUTER_BOUND ( 'NONE', #265, .T. ) ;
#6 = FILL_AREA_STYLE_COLOUR ( '', #181 ) ;
#7 = UNCERTAINTY_MEASURE_WITH_UNIT (LENGTH_MEASURE( 1.000000000000000100E-005 ), #270, 'distance_accuracy_value', 'NONE');
#8 = CIRCLE ( 'NONE', #218, 2.500000000000000000 ) ;
#9 = CARTESIAN_POINT ( 'NONE',  ( 0.0000000000000000000, 0.0000000000000000000, 0.0000000000000000000 ) ) ;
#10 = VERTEX_POINT ( 'NONE', #42 ) ;
#11 = AXIS2_PLACEMENT_3D ( 'NONE', #196, #191, #199 ) ;
#12 = CARTESIAN_POINT ( 'NONE',  ( 100.0000000000000000, 0.0000000000000000000, 4.000000000000000000 ) ) ;
#13 = AXIS2_PLACEMENT_3D ( 'NONE', #188, #293, #238 ) ;
#14 = STYLED_ITEM ( 'NONE', ( #182 ), #205 ) ;
#15 = AXIS2_PLACEMENT_3D ( 'NONE', #9, #258, #262 ) ;
#16 = STYLED_ITEM ( 'NONE', ( #275 ), #184 ) ;
#17 = ITEM_DEFINED_TRANSFORMATION ( 'NONE', 'NONE', #13,  #15 ) ;
#18 =( GEOMETRIC_REPRESENTATION_CONTEXT ( 3 ) GLOBAL_UNCERTAINTY_ASSIGNED_CONTEXT ( ( #40 ) ) GLOBAL_UNIT_ASSIGNED_CONTEXT ( ( #261, #59, #67 ) ) REPRESENTATION_CONTEXT ( 'NONE', 'WORKASPACE' ) );
#19 = MECHANICAL_DESIGN_GEOMETRIC_PRESENTATION_REPRESENTATION (  '', ( #21 ), #18 ) ;
#20 = PRESENTATION_LAYER_ASSIGNMENT (  '', '', ( #21 ) ) ;
#21 = STYLED_ITEM ( 'NONE', ( #180 ), #340 ) ;
#22 = AXIS2_PLACEMENT_3D ( 'NONE', #43, #183, #229 ) ;
#23 = AXIS2_PLACEMENT_3D ( 'NONE', #173, #174, #216 ) ;
#24 = AXIS2_PLACEMENT_3D ( 'NONE', #228, #230, #239 ) ;
#25 = PRODUCT_DEFINITION ( 'UNKNOWN', '', #53, #249 ) ;
#26 = AXIS2_PLACEMENT_3D ( 'NONE', #159, #328, #332 ) ;
#27 = SHAPE_DEFINITION_REPRESENTATION ( #298, #289 ) ;
#28 = PRODUCT_DEFINITION ( 'UNKNOWN', '', #31, #260 ) ;
#29 = PRODUCT_RELATED_PRODUCT_CATEGORY ( 'part', '', ( #227 ) ) ;
#30 =( LENGTH_UNIT ( ) NAMED_UNIT ( * ) SI_UNIT ( .MILLI., .METRE. ) );
#31 = PRODUCT_DEFINITION_FORMATION_WITH_SPECIFIED_SOURCE ( 'ANY', '', #137, .NOT_KNOWN. ) ;
#32 = ORIENTED_EDGE ( 'NONE', *, *, #325, .F. ) ;
#33 = AXIS2_PLACEMENT_3D ( 'NONE', #93, #179, #245 ) ;
#34 =( GEOMETRIC_REPRESENTATION_CONTEXT ( 3 ) GLOBAL_UNCERTAINTY_ASSIGNED_CONTEXT ( ( #3 ) ) GLOBAL_UNIT_ASSIGNED_CONTEXT ( ( #4, #144, #251 ) ) REPRESENTATION_CONTEXT ( 'NONE', 'WORKASPACE' ) );
#35 = VECTOR ( 'NONE', #211, 1000.000000000000000 ) ;
#36 = UNCERTAINTY_MEASURE_WITH_UNIT (LENGTH_MEASURE( 1.000000000000000100E-005 ), #272, 'distance_accuracy_value', 'NONE');
#37 = FACE_OUTER_BOUND ( 'NONE', #297, .T. ) ;
#38 = DIRECTION ( 'NONE',  ( -1.000000000000000000, -0.0000000000000000000, -0.0000000000000000000 ) ) ;
#39 = ADVANCED_FACE ( 'NONE', ( #225, #194 ), #152, .T. ) ;
#40 = UNCERTAINTY_MEASURE_WITH_UNIT (LENGTH_MEASURE( 1.000000000000000100E-005 ), #261, 'distance_accuracy_value', 'NONE');
#41 = CYLINDRICAL_SURFACE ( 'NONE', #33, 2.500000000000000000 ) ;
#42 = CARTESIAN_POINT ( 'NONE',  ( 0.0000000000000000000, 0.0000000000000000000, 4.000000000000000000 ) ) ;
#43 = CARTESIAN_POINT ( 'NONE',  ( 0.0000000000000000000, 0.0000000000000000000, 0.0000000000000000000 ) ) ;
#44 = PRESENTATION_STYLE_ASSIGNMENT (( #132 ) ) ;
#45 = ORIENTED_EDGE ( 'NONE', *, *, #267, .T. ) ;
#46 = VERTEX_POINT ( 'NONE', #114 ) ;
#47 = SURFACE_STYLE_FILL_AREA ( #141 ) ;
#48 = ADVANCED_FACE ( 'NONE', ( #101 ), #57, .T. ) ;
#49 = ORIENTED_EDGE ( 'NONE', *, *, #326, .T. ) ;
#50 = CIRCLE ( 'NONE', #22, 4.000000000000000000 ) ;
#51 = VERTEX_POINT ( 'NONE', #127 ) ;
#52 = PRESENTATION_STYLE_ASSIGNMENT (( #140 ) ) ;
#53 = PRODUCT_DEFINITION_FORMATION_WITH_SPECIFIED_SOURCE ( 'ANY', '', #227, .NOT_KNOWN. ) ;
#54 = PRODUCT_RELATED_PRODUCT_CATEGORY ( 'part', '', ( #137 ) ) ;
#55 = EDGE_LOOP ( 'NONE', ( #130, #120 ) ) ;
#56 = ORIENTED_EDGE ( 'NONE', *, *, #338, .T. ) ;
#57 = CYLINDRICAL_SURFACE ( 'NONE', #317, 4.000000000000000000 ) ;
#58 = SURFACE_STYLE_FILL_AREA ( #200 ) ;
#59 =( NAMED_UNIT ( * ) PLANE_ANGLE_UNIT ( ) SI_UNIT ( $, .RADIAN. ) );
#60 = CYLINDRICAL_SURFACE ( 'NONE', #296, 4.000000000000000000 ) ;
#61 = PRODUCT_CONTEXT ( 'NONE', #163, 'mechanical' ) ;
#62 = ORIENTED_EDGE ( 'NONE', *, *, #267, .F. ) ;
#63 = SURFACE_STYLE_USAGE ( .BOTH. , #237 ) ;
#64 =( GEOMETRIC_REPRESENTATION_CONTEXT ( 3 ) GLOBAL_UNCERTAINTY_ASSIGNED_CONTEXT ( ( #255 ) ) GLOBAL_UNIT_ASSIGNED_CONTEXT ( ( #300, #273, #282 ) ) REPRESENTATION_CONTEXT ( 'NONE', 'WORKASPACE' ) );
#65 = PRODUCT_DEFINITION_SHAPE ( 'NONE', 'NONE',  #341 ) ;
#66 = VECTOR ( 'NONE', #95, 1000.000000000000000 ) ;
#67 =( NAMED_UNIT ( * ) SI_UNIT ( $, .STERADIAN. ) SOLID_ANGLE_UNIT ( ) );
#68 = EDGE_LOOP ( 'NONE', ( #108, #56, #100, #2 ) ) ;
#69 = STYLED_ITEM ( 'NONE', ( #44 ), #98 ) ;
#70 = SHAPE_REPRESENTATION_RELATIONSHIP ( 'NONE' , 'NONE' ,  #160, #184 ) ;
#71 = PRESENTATION_STYLE_ASSIGNMENT (( #96 ) ) ;
#72 = PRESENTATION_LAYER_ASSIGNMENT (  '', '', ( #16 ) ) ;
#73 = ORIENTED_EDGE ( 'NONE', *, *, #233, .T. ) ;
#74 =( GEOMETRIC_REPRESENTATION_CONTEXT ( 3 ) GLOBAL_UNCERTAINTY_ASSIGNED_CONTEXT ( ( #190 ) ) GLOBAL_UNIT_ASSIGNED_CONTEXT ( ( #195, #111, #259 ) ) REPRESENTATION_CONTEXT ( 'NONE', 'WORKASPACE' ) );
#75 = LINE ( 'NONE', #254, #287 ) ;
#76 = DIRECTION ( 'NONE',  ( 0.0000000000000000000, 0.0000000000000000000, -1.000000000000000000 ) ) ;
#77 = VECTOR ( 'NONE', #38, 1000.000000000000000 ) ;
#78 = APPLICATION_PROTOCOL_DEFINITION ( 'draft international standard', 'automotive_design', 1998, #163 ) ;
#79 = DIRECTION ( 'NONE',  ( 0.0000000000000000000, 0.0000000000000000000, 1.000000000000000000 ) ) ;
#80 = CARTESIAN_POINT ( 'NONE',  ( 111.3137084989847500, 0.0000000000000000000, 4.000000000000000000 ) ) ;
#81 = UNCERTAINTY_MEASURE_WITH_UNIT (LENGTH_MEASURE( 1.000000000000000100E-005 ), #154, 'distance_accuracy_value', 'NONE');
#82 =( GEOMETRIC_REPRESENTATION_CONTEXT ( 3 ) GLOBAL_UNCERTAINTY_ASSIGNED_CONTEXT ( ( #331 ) ) GLOBAL_UNIT_ASSIGNED_CONTEXT ( ( #209, #210, #125 ) ) REPRESENTATION_CONTEXT ( 'NONE', 'WORKASPACE' ) );
#83 = SURFACE_SIDE_STYLE ('',( #58 ) ) ;
#84 = SURFACE_STYLE_USAGE ( .BOTH. , #156 ) ;
#85 = SURFACE_STYLE_USAGE ( .BOTH. , #113 ) ;
#86 = VERTEX_POINT ( 'NONE', #124 ) ;
#87 = ORIENTED_EDGE ( 'NONE', *, *, #325, .T. ) ;
#88 = ORIENTED_EDGE ( 'NONE', *, *, #306, .T. ) ;
#89 = ORIENTED_EDGE ( 'NONE', *, *, #274, .T. ) ;
#90 = DIRECTION ( 'NONE',  ( 1.000000000000000000, 0.0000000000000000000, 0.0000000000000000000 ) ) ;
#91 = APPLICATION_CONTEXT ( 'automotive_design' ) ;
#92 = VERTEX_POINT ( 'NONE', #12 ) ;
#93 = CARTESIAN_POINT ( 'NONE',  ( 111.3137084989847500, 0.0000000000000000000, 0.0000000000000000000 ) ) ;
#94 = FACE_BOUND ( 'NONE', #55, .T. ) ;
#95 = DIRECTION ( 'NONE',  ( -1.000000000000000000, -0.0000000000000000000, -0.0000000000000000000 ) ) ;
#96 = SURFACE_STYLE_USAGE ( .BOTH. , #334 ) ;
#97 = CIRCLE ( 'NONE', #295, 2.500000000000000000 ) ;
#98 = MANIFOLD_SOLID_BREP ( 'Tube', #105 ) ;
#99 = DIRECTION ( 'NONE',  ( 1.000000000000000000, 0.0000000000000000000, 0.0000000000000000000 ) ) ;
#100 = ORIENTED_EDGE ( 'NONE', *, *, #321, .F. ) ;
#101 = FACE_OUTER_BOUND ( 'NONE', #335, .T. ) ;
#102 = COLOUR_RGB ( '',0.9686274509803921600, 1.000000000000000000, 0.9803921568627450600 ) ;
#103 = COLOUR_RGB ( '',0.9686274509803921600, 1.000000000000000000, 0.9803921568627450600 ) ;
#104 = DIRECTION ( 'NONE',  ( 0.0000000000000000000, 0.0000000000000000000, -1.000000000000000000 ) ) ;
#105 = CLOSED_SHELL ( 'NONE', ( #192, #48, #123, #340, #205, #39 ) ) ;
#106 = VERTEX_POINT ( 'NONE', #118 ) ;
#107 = FACE_OUTER_BOUND ( 'NONE', #68, .T. ) ;
#108 = ORIENTED_EDGE ( 'NONE', *, *, #236, .T. ) ;
#109 = SURFACE_STYLE_FILL_AREA ( #242 ) ;
#110 = SURFACE_STYLE_FILL_AREA ( #150 ) ;
#111 =( NAMED_UNIT ( * ) PLANE_ANGLE_UNIT ( ) SI_UNIT ( $, .RADIAN. ) );
#112 = DIRECTION ( 'NONE',  ( 0.0000000000000000000, 0.0000000000000000000, -1.000000000000000000 ) ) ;
#113 = SURFACE_SIDE_STYLE ('',( #279 ) ) ;
#114 = CARTESIAN_POINT ( 'NONE',  ( 0.0000000000000000000, 4.898587196589412800E-016, -4.000000000000000000 ) ) ;
#115 = DIRECTION ( 'NONE',  ( -1.000000000000000000, -0.0000000000000000000, -0.0000000000000000000 ) ) ;
#116 = FILL_AREA_STYLE ('',( #119 ) ) ;
#117 = SURFACE_STYLE_FILL_AREA ( #116 ) ;
#118 = CARTESIAN_POINT ( 'NONE',  ( 100.0000000000000000, 4.898587196589412800E-016, -4.000000000000000000 ) ) ;
#119 = FILL_AREA_STYLE_COLOUR ( '', #157 ) ;
#120 = ORIENTED_EDGE ( 'NONE', *, *, #187, .T. ) ;
#121 = CARTESIAN_POINT ( 'NONE',  ( 100.0000000000000000, 0.0000000000000000000, 0.0000000000000000000 ) ) ;
#122 =( NAMED_UNIT ( * ) PLANE_ANGLE_UNIT ( ) SI_UNIT ( $, .RADIAN. ) );
#123 = ADVANCED_FACE ( 'NONE', ( #5 ), #60, .T. ) ;
#124 = CARTESIAN_POINT ( 'NONE',  ( 100.0000000000000000, 3.061616997868383100E-016, -2.500000000000000000 ) ) ;
#125 =( NAMED_UNIT ( * ) SI_UNIT ( $, .STERADIAN. ) SOLID_ANGLE_UNIT ( ) );
#126 = CARTESIAN_POINT ( 'NONE',  ( 111.3137084989847500, 0.0000000000000000000, 0.0000000000000000000 ) ) ;
#127 = CARTESIAN_POINT ( 'NONE',  ( 0.0000000000000000000, 3.061616997868383100E-016, -2.500000000000000000 ) ) ;
#128 = FILL_AREA_STYLE ('',( #6 ) ) ;
#129 =( NAMED_UNIT ( * ) SI_UNIT ( $, .STERADIAN. ) SOLID_ANGLE_UNIT ( ) );
#130 = ORIENTED_EDGE ( 'NONE', *, *, #321, .T. ) ;
#131 = CARTESIAN_POINT ( 'NONE',  ( 111.3137084989847500, 0.0000000000000000000, 0.0000000000000000000 ) ) ;
#132 = SURFACE_STYLE_USAGE ( .BOTH. , #134 ) ;
#133 = DIRECTION ( 'NONE',  ( 0.0000000000000000000, 0.0000000000000000000, -1.000000000000000000 ) ) ;
#134 = SURFACE_SIDE_STYLE ('',( #117 ) ) ;
#135 = CARTESIAN_POINT ( 'NONE',  ( 111.3137084989847500, 0.0000000000000000000, 0.0000000000000000000 ) ) ;
#136 = DIRECTION ( 'NONE',  ( -1.000000000000000000, -0.0000000000000000000, -0.0000000000000000000 ) ) ;
#137 = PRODUCT ( 'TU0805C-20.step_TU3076 Tube_0805C', 'TU0805C-20.step_TU3076 Tube_0805C', '', ( #61 ) ) ;
#138 = FILL_AREA_STYLE_COLOUR ( '', #206 ) ;
#139 = SURFACE_SIDE_STYLE ('',( #47 ) ) ;
#140 = SURFACE_STYLE_USAGE ( .BOTH. , #139 ) ;
#141 = FILL_AREA_STYLE ('',( #138 ) ) ;
#142 = CARTESIAN_POINT ( 'NONE',  ( 100.0000000000000000, 0.0000000000000000000, 0.0000000000000000000 ) ) ;
#143 = DIRECTION ( 'NONE',  ( 1.000000000000000000, 0.0000000000000000000, 0.0000000000000000000 ) ) ;
#144 =( NAMED_UNIT ( * ) PLANE_ANGLE_UNIT ( ) SI_UNIT ( $, .RADIAN. ) );
#145 =( NAMED_UNIT ( * ) PLANE_ANGLE_UNIT ( ) SI_UNIT ( $, .RADIAN. ) );
#146 =( GEOMETRIC_REPRESENTATION_CONTEXT ( 3 ) GLOBAL_UNCERTAINTY_ASSIGNED_CONTEXT ( ( #278 ) ) GLOBAL_UNIT_ASSIGNED_CONTEXT ( ( #30, #269, #268 ) ) REPRESENTATION_CONTEXT ( 'NONE', 'WORKASPACE' ) );
#147 =( NAMED_UNIT ( * ) SI_UNIT ( $, .STERADIAN. ) SOLID_ANGLE_UNIT ( ) );
#148 =( NAMED_UNIT ( * ) SI_UNIT ( $, .STERADIAN. ) SOLID_ANGLE_UNIT ( ) );
#149 = ORIENTED_EDGE ( 'NONE', *, *, #187, .F. ) ;
#150 = FILL_AREA_STYLE ('',( #266 ) ) ;
#151 = EDGE_LOOP ( 'NONE', ( #257, #207 ) ) ;
#152 = PLANE ( 'NONE',  #281 ) ;
#153 = ORIENTED_EDGE ( 'NONE', *, *, #274, .F. ) ;
#154 =( LENGTH_UNIT ( ) NAMED_UNIT ( * ) SI_UNIT ( .MILLI., .METRE. ) );
#155 = FILL_AREA_STYLE_COLOUR ( '', #103 ) ;
#156 = SURFACE_SIDE_STYLE ('',( #320 ) ) ;
#157 = COLOUR_RGB ( '',0.0000000000000000000, 0.5843137254901961100, 0.9058823529411764700 ) ;
#158 = CIRCLE ( 'NONE', #319, 4.000000000000000000 ) ;
#159 = CARTESIAN_POINT ( 'NONE',  ( 0.0000000000000000000, 0.0000000000000000000, 0.0000000000000000000 ) ) ;
#160 = SHAPE_REPRESENTATION ( 'TU0805C-20.step_TU3076 Tube_0805C', ( #15 ), #74 ) ;
#161 = MECHANICAL_DESIGN_GEOMETRIC_PRESENTATION_REPRESENTATION (  '', ( #14 ), #34 ) ;
#162 = PRESENTATION_LAYER_ASSIGNMENT (  '', '', ( #208 ) ) ;
#163 = APPLICATION_CONTEXT ( 'automotive_design' ) ;
#164 = LINE ( 'NONE', #198, #66 ) ;
#165 = DIRECTION ( 'NONE',  ( 0.0000000000000000000, 0.0000000000000000000, -1.000000000000000000 ) ) ;
#166 = ORIENTED_EDGE ( 'NONE', *, *, #323, .T. ) ;
#167 = APPLICATION_PROTOCOL_DEFINITION ( 'draft international standard', 'automotive_design', 1998, #91 ) ;
#168 = ORIENTED_EDGE ( 'NONE', *, *, #252, .T. ) ;
#169 =( REPRESENTATION_RELATIONSHIP ('NONE','NONE', #289, #160 ) REPRESENTATION_RELATIONSHIP_WITH_TRANSFORMATION ( #17 )SHAPE_REPRESENTATION_RELATIONSHIP( ) );
#170 = CARTESIAN_POINT ( 'NONE',  ( 111.3137084989847500, 0.0000000000000000000, 2.500000000000000000 ) ) ;
#171 = CARTESIAN_POINT ( 'NONE',  ( 100.0000000000000000, 0.0000000000000000000, 0.0000000000000000000 ) ) ;
#172 = FILL_AREA_STYLE ('',( #277 ) ) ;
#173 = CARTESIAN_POINT ( 'NONE',  ( 0.0000000000000000000, 0.0000000000000000000, 0.0000000000000000000 ) ) ;
#174 = DIRECTION ( 'NONE',  ( 1.000000000000000000, 0.0000000000000000000, 0.0000000000000000000 ) ) ;
#175 = DIRECTION ( 'NONE',  ( 1.000000000000000000, 0.0000000000000000000, 0.0000000000000000000 ) ) ;
#176 = CONTEXT_DEPENDENT_SHAPE_REPRESENTATION ( #169, #65 ) ;
#177 = EDGE_LOOP ( 'NONE', ( #87, #89 ) ) ;
#178 = DIRECTION ( 'NONE',  ( 0.0000000000000000000, 0.0000000000000000000, -1.000000000000000000 ) ) ;
#179 = DIRECTION ( 'NONE',  ( -1.000000000000000000, -0.0000000000000000000, -0.0000000000000000000 ) ) ;
#180 = PRESENTATION_STYLE_ASSIGNMENT (( #301 ) ) ;
#181 = COLOUR_RGB ( '',0.9686274509803921600, 1.000000000000000000, 0.9803921568627450600 ) ;
#182 = PRESENTATION_STYLE_ASSIGNMENT (( #244 ) ) ;
#183 = DIRECTION ( 'NONE',  ( 1.000000000000000000, 0.0000000000000000000, 0.0000000000000000000 ) ) ;
#184 = ADVANCED_BREP_SHAPE_REPRESENTATION ( '', ( #98, #15 ), #74 ) ;
#185 = CARTESIAN_POINT ( 'NONE',  ( 100.0000000000000000, 0.0000000000000000000, 0.0000000000000000000 ) ) ;
#186 = DIRECTION ( 'NONE',  ( 1.000000000000000000, 0.0000000000000000000, 0.0000000000000000000 ) ) ;
#187 = EDGE_CURVE ( 'NONE', #51, #310, #97, .T. ) ;
#188 = CARTESIAN_POINT ( 'NONE',  ( 0.0000000000000000000, 0.0000000000000000000, 0.0000000000000000000 ) ) ;
#189 = PRODUCT_CONTEXT ( 'NONE', #285, 'mechanical' ) ;
#190 = UNCERTAINTY_MEASURE_WITH_UNIT (LENGTH_MEASURE( 1.000000000000000100E-005 ), #195, 'distance_accuracy_value', 'NONE');
#191 = DIRECTION ( 'NONE',  ( 1.000000000000000000, 0.0000000000000000000, 0.0000000000000000000 ) ) ;
#192 = ADVANCED_FACE ( 'NONE', ( #107 ), #324, .F. ) ;
#193 = DIRECTION ( 'NONE',  ( 1.000000000000000000, 0.0000000000000000000, 0.0000000000000000000 ) ) ;
#194 = FACE_OUTER_BOUND ( 'NONE', #177, .T. ) ;
#195 =( LENGTH_UNIT ( ) NAMED_UNIT ( * ) SI_UNIT ( .MILLI., .METRE. ) );
#196 = CARTESIAN_POINT ( 'NONE',  ( 0.0000000000000000000, 0.0000000000000000000, 0.0000000000000000000 ) ) ;
#197 = AXIS2_PLACEMENT_3D ( 'NONE', #313, #193, #104 ) ;
#198 = CARTESIAN_POINT ( 'NONE',  ( 111.3137084989847500, 3.061616997868383100E-016, -2.500000000000000000 ) ) ;
#199 = DIRECTION ( 'NONE',  ( 0.0000000000000000000, 0.0000000000000000000, -1.000000000000000000 ) ) ;
#200 = FILL_AREA_STYLE ('',( #155 ) ) ;
#201 = DIRECTION ( 'NONE',  ( 0.0000000000000000000, 0.0000000000000000000, 1.000000000000000000 ) ) ;
#202 = CIRCLE ( 'NONE', #23, 4.000000000000000000 ) ;
#203 = PLANE ( 'NONE',  #11 ) ;
#204 =( NAMED_UNIT ( * ) SI_UNIT ( $, .STERADIAN. ) SOLID_ANGLE_UNIT ( ) );
#205 = ADVANCED_FACE ( 'NONE', ( #276 ), #41, .F. ) ;
#206 = COLOUR_RGB ( '',0.9686274509803921600, 1.000000000000000000, 0.9803921568627450600 ) ;
#207 = ORIENTED_EDGE ( 'NONE', *, *, #306, .F. ) ;
#208 = STYLED_ITEM ( 'NONE', ( #302 ), #39 ) ;
#209 =( LENGTH_UNIT ( ) NAMED_UNIT ( * ) SI_UNIT ( .MILLI., .METRE. ) );
#210 =( NAMED_UNIT ( * ) PLANE_ANGLE_UNIT ( ) SI_UNIT ( $, .RADIAN. ) );
#211 = DIRECTION ( 'NONE',  ( -1.000000000000000000, -0.0000000000000000000, -0.0000000000000000000 ) ) ;
#212 =( GEOMETRIC_REPRESENTATION_CONTEXT ( 3 ) GLOBAL_UNCERTAINTY_ASSIGNED_CONTEXT ( ( #36 ) ) GLOBAL_UNIT_ASSIGNED_CONTEXT ( ( #272, #284, #148 ) ) REPRESENTATION_CONTEXT ( 'NONE', 'WORKASPACE' ) );
#213 = ORIENTED_EDGE ( 'NONE', *, *, #323, .F. ) ;
#214 = PRESENTATION_LAYER_ASSIGNMENT (  '', '', ( #69 ) ) ;
#215 =( GEOMETRIC_REPRESENTATION_CONTEXT ( 3 ) GLOBAL_UNCERTAINTY_ASSIGNED_CONTEXT ( ( #81 ) ) GLOBAL_UNIT_ASSIGNED_CONTEXT ( ( #154, #122, #129 ) ) REPRESENTATION_CONTEXT ( 'NONE', 'WORKASPACE' ) );
#216 = DIRECTION ( 'NONE',  ( 0.0000000000000000000, 0.0000000000000000000, -1.000000000000000000 ) ) ;
#217 = SURFACE_STYLE_FILL_AREA ( #221 ) ;
#218 = AXIS2_PLACEMENT_3D ( 'NONE', #171, #175, #133 ) ;
#219 = CIRCLE ( 'NONE', #271, 2.500000000000000000 ) ;
#220 = PRESENTATION_LAYER_ASSIGNMENT (  '', '', ( #246 ) ) ;
#221 = FILL_AREA_STYLE ('',( #231 ) ) ;
#222 = MECHANICAL_DESIGN_GEOMETRIC_PRESENTATION_REPRESENTATION (  '', ( #315 ), #309 ) ;
#223 = PRESENTATION_LAYER_ASSIGNMENT (  '', '', ( #14 ) ) ;
#224 = VERTEX_POINT ( 'NONE', #311 ) ;
#225 = FACE_BOUND ( 'NONE', #151, .T. ) ;
#226 = MECHANICAL_DESIGN_GEOMETRIC_PRESENTATION_REPRESENTATION (  '', ( #16 ), #64 ) ;
#227 = PRODUCT ( 'TU0805C-20.step', 'TU0805C-20.step', '', ( #189 ) ) ;
#228 = CARTESIAN_POINT ( 'NONE',  ( 0.0000000000000000000, 0.0000000000000000000, 0.0000000000000000000 ) ) ;
#229 = DIRECTION ( 'NONE',  ( 0.0000000000000000000, 0.0000000000000000000, -1.000000000000000000 ) ) ;
#230 = DIRECTION ( 'NONE',  ( 0.0000000000000000000, 0.0000000000000000000, 1.000000000000000000 ) ) ;
#231 = FILL_AREA_STYLE_COLOUR ( '', #247 ) ;
#232 = DIRECTION ( 'NONE',  ( 0.0000000000000000000, 0.0000000000000000000, -1.000000000000000000 ) ) ;
#233 = EDGE_CURVE ( 'NONE', #46, #10, #202, .T. ) ;
#234 = CARTESIAN_POINT ( 'NONE',  ( 0.0000000000000000000, 0.0000000000000000000, 0.0000000000000000000 ) ) ;
#235 = APPLICATION_PROTOCOL_DEFINITION ( 'draft international standard', 'automotive_design', 1998, #285 ) ;
#236 = EDGE_CURVE ( 'NONE', #224, #86, #8, .T. ) ;
#237 = SURFACE_SIDE_STYLE ('',( #110 ) ) ;
#238 = DIRECTION ( 'NONE',  ( 1.000000000000000000, 0.0000000000000000000, 0.0000000000000000000 ) ) ;
#239 = DIRECTION ( 'NONE',  ( 1.000000000000000000, 0.0000000000000000000, 0.0000000000000000000 ) ) ;
#240 = DIRECTION ( 'NONE',  ( 1.000000000000000000, 0.0000000000000000000, 0.0000000000000000000 ) ) ;
#241 =( NAMED_UNIT ( * ) PLANE_ANGLE_UNIT ( ) SI_UNIT ( $, .RADIAN. ) );
#242 = FILL_AREA_STYLE ('',( #263 ) ) ;
#243 = DIRECTION ( 'NONE',  ( 0.0000000000000000000, 0.0000000000000000000, 1.000000000000000000 ) ) ;
#244 = SURFACE_STYLE_USAGE ( .BOTH. , #339 ) ;
#245 = DIRECTION ( 'NONE',  ( 0.0000000000000000000, 0.0000000000000000000, 1.000000000000000000 ) ) ;
#246 = STYLED_ITEM ( 'NONE', ( #318 ), #48 ) ;
#247 = COLOUR_RGB ( '',0.9686274509803921600, 1.000000000000000000, 0.9803921568627450600 ) ;
#248 = ORIENTED_EDGE ( 'NONE', *, *, #326, .F. ) ;
#249 = PRODUCT_DEFINITION_CONTEXT ( 'detailed design', #283, 'design' ) ;
#250 = ORIENTED_EDGE ( 'NONE', *, *, #233, .F. ) ;
#251 =( NAMED_UNIT ( * ) SI_UNIT ( $, .STERADIAN. ) SOLID_ANGLE_UNIT ( ) );
#252 = EDGE_CURVE ( 'NONE', #224, #310, #312, .T. ) ;
#253 = COLOUR_RGB ( '',0.9686274509803921600, 1.000000000000000000, 0.9803921568627450600 ) ;
#254 = CARTESIAN_POINT ( 'NONE',  ( 111.3137084989847500, 4.898587196589412800E-016, -4.000000000000000000 ) ) ;
#255 = UNCERTAINTY_MEASURE_WITH_UNIT (LENGTH_MEASURE( 1.000000000000000100E-005 ), #300, 'distance_accuracy_value', 'NONE');
#256 = DIRECTION ( 'NONE',  ( -1.000000000000000000, -0.0000000000000000000, -0.0000000000000000000 ) ) ;
#257 = ORIENTED_EDGE ( 'NONE', *, *, #236, .F. ) ;
#258 = DIRECTION ( 'NONE',  ( 0.0000000000000000000, 0.0000000000000000000, 1.000000000000000000 ) ) ;
#259 =( NAMED_UNIT ( * ) SI_UNIT ( $, .STERADIAN. ) SOLID_ANGLE_UNIT ( ) );
#260 = PRODUCT_DEFINITION_CONTEXT ( 'detailed design', #91, 'design' ) ;
#261 =( LENGTH_UNIT ( ) NAMED_UNIT ( * ) SI_UNIT ( .MILLI., .METRE. ) );
#262 = DIRECTION ( 'NONE',  ( 1.000000000000000000, 0.0000000000000000000, 0.0000000000000000000 ) ) ;
#263 = FILL_AREA_STYLE_COLOUR ( '', #253 ) ;
#264 = DIRECTION ( 'NONE',  ( -1.000000000000000000, -0.0000000000000000000, -0.0000000000000000000 ) ) ;
#265 = EDGE_LOOP ( 'NONE', ( #62, #32, #49, #166 ) ) ;
#266 = FILL_AREA_STYLE_COLOUR ( '', #102 ) ;
#267 = EDGE_CURVE ( 'NONE', #106, #46, #75, .T. ) ;
#268 =( NAMED_UNIT ( * ) SI_UNIT ( $, .STERADIAN. ) SOLID_ANGLE_UNIT ( ) );
#269 =( NAMED_UNIT ( * ) PLANE_ANGLE_UNIT ( ) SI_UNIT ( $, .RADIAN. ) );
#270 =( LENGTH_UNIT ( ) NAMED_UNIT ( * ) SI_UNIT ( .MILLI., .METRE. ) );
#271 = AXIS2_PLACEMENT_3D ( 'NONE', #305, #90, #76 ) ;
#272 =( LENGTH_UNIT ( ) NAMED_UNIT ( * ) SI_UNIT ( .MILLI., .METRE. ) );
#273 =( NAMED_UNIT ( * ) PLANE_ANGLE_UNIT ( ) SI_UNIT ( $, .RADIAN. ) );
#274 = EDGE_CURVE ( 'NONE', #106, #92, #280, .T. ) ;
#275 = PRESENTATION_STYLE_ASSIGNMENT (( #63 ) ) ;
#276 = FACE_OUTER_BOUND ( 'NONE', #333, .T. ) ;
#277 = FILL_AREA_STYLE_COLOUR ( '', #316 ) ;
#278 = UNCERTAINTY_MEASURE_WITH_UNIT (LENGTH_MEASURE( 1.000000000000000100E-005 ), #30, 'distance_accuracy_value', 'NONE');
#279 = SURFACE_STYLE_FILL_AREA ( #128 ) ;
#280 = CIRCLE ( 'NONE', #197, 4.000000000000000000 ) ;
#281 = AXIS2_PLACEMENT_3D ( 'NONE', #121, #99, #112 ) ;
#282 =( NAMED_UNIT ( * ) SI_UNIT ( $, .STERADIAN. ) SOLID_ANGLE_UNIT ( ) );
#283 = APPLICATION_CONTEXT ( 'automotive_design' ) ;
#284 =( NAMED_UNIT ( * ) PLANE_ANGLE_UNIT ( ) SI_UNIT ( $, .RADIAN. ) );
#285 = APPLICATION_CONTEXT ( 'automotive_design' ) ;
#286 = LINE ( 'NONE', #80, #77 ) ;
#287 = VECTOR ( 'NONE', #256, 1000.000000000000000 ) ;
#288 = PRODUCT_DEFINITION_SHAPE ( 'NONE', 'NONE',  #28 ) ;
#289 = SHAPE_REPRESENTATION ( 'TU0805C-20.step', ( #26, #13 ), #212 ) ;
#290 = SHAPE_DEFINITION_REPRESENTATION ( #288, #160 ) ;
#291 = AXIS2_PLACEMENT_3D ( 'NONE', #185, #186, #178 ) ;
#292 = PRESENTATION_LAYER_ASSIGNMENT (  '', '', ( #307 ) ) ;
#293 = DIRECTION ( 'NONE',  ( 0.0000000000000000000, 0.0000000000000000000, 1.000000000000000000 ) ) ;
#294 = MECHANICAL_DESIGN_GEOMETRIC_PRESENTATION_REPRESENTATION (  '', ( #307 ), #146 ) ;
#295 = AXIS2_PLACEMENT_3D ( 'NONE', #234, #240, #232 ) ;
#296 = AXIS2_PLACEMENT_3D ( 'NONE', #135, #136, #201 ) ;
#297 = EDGE_LOOP ( 'NONE', ( #213, #250 ) ) ;
#298 = PRODUCT_DEFINITION_SHAPE ( 'NONE', 'NONE',  #25 ) ;
#299 = PRESENTATION_LAYER_ASSIGNMENT (  '', '', ( #315 ) ) ;
#300 =( LENGTH_UNIT ( ) NAMED_UNIT ( * ) SI_UNIT ( .MILLI., .METRE. ) );
#301 = SURFACE_STYLE_USAGE ( .BOTH. , #83 ) ;
#302 = PRESENTATION_STYLE_ASSIGNMENT (( #84 ) ) ;
#303 = AXIS2_PLACEMENT_3D ( 'NONE', #126, #264, #243 ) ;
#304 =( LENGTH_UNIT ( ) NAMED_UNIT ( * ) SI_UNIT ( .MILLI., .METRE. ) );
#305 = CARTESIAN_POINT ( 'NONE',  ( 0.0000000000000000000, 0.0000000000000000000, 0.0000000000000000000 ) ) ;
#306 = EDGE_CURVE ( 'NONE', #86, #224, #322, .T. ) ;
#307 = STYLED_ITEM ( 'NONE', ( #52 ), #123 ) ;
#308 = MECHANICAL_DESIGN_GEOMETRIC_PRESENTATION_REPRESENTATION (  '', ( #246 ), #215 ) ;
#309 =( GEOMETRIC_REPRESENTATION_CONTEXT ( 3 ) GLOBAL_UNCERTAINTY_ASSIGNED_CONTEXT ( ( #7 ) ) GLOBAL_UNIT_ASSIGNED_CONTEXT ( ( #270, #145, #147 ) ) REPRESENTATION_CONTEXT ( 'NONE', 'WORKASPACE' ) );
#310 = VERTEX_POINT ( 'NONE', #327 ) ;
#311 = CARTESIAN_POINT ( 'NONE',  ( 100.0000000000000000, 0.0000000000000000000, 2.500000000000000000 ) ) ;
#312 = LINE ( 'NONE', #170, #35 ) ;
#313 = CARTESIAN_POINT ( 'NONE',  ( 100.0000000000000000, 0.0000000000000000000, 0.0000000000000000000 ) ) ;
#314 = MECHANICAL_DESIGN_GEOMETRIC_PRESENTATION_REPRESENTATION (  '', ( #69 ), #82 ) ;
#315 = STYLED_ITEM ( 'NONE', ( #71 ), #192 ) ;
#316 = COLOUR_RGB ( '',0.9686274509803921600, 1.000000000000000000, 0.9803921568627450600 ) ;
#317 = AXIS2_PLACEMENT_3D ( 'NONE', #131, #115, #79 ) ;
#318 = PRESENTATION_STYLE_ASSIGNMENT (( #85 ) ) ;
#319 = AXIS2_PLACEMENT_3D ( 'NONE', #142, #143, #165 ) ;
#320 = SURFACE_STYLE_FILL_AREA ( #172 ) ;
#321 = EDGE_CURVE ( 'NONE', #310, #51, #219, .T. ) ;
#322 = CIRCLE ( 'NONE', #291, 2.500000000000000000 ) ;
#323 = EDGE_CURVE ( 'NONE', #10, #46, #50, .T. ) ;
#324 = CYLINDRICAL_SURFACE ( 'NONE', #303, 2.500000000000000000 ) ;
#325 = EDGE_CURVE ( 'NONE', #92, #106, #158, .T. ) ;
#326 = EDGE_CURVE ( 'NONE', #92, #10, #286, .T. ) ;
#327 = CARTESIAN_POINT ( 'NONE',  ( 0.0000000000000000000, 0.0000000000000000000, 2.500000000000000000 ) ) ;
#328 = DIRECTION ( 'NONE',  ( 0.0000000000000000000, 0.0000000000000000000, 1.000000000000000000 ) ) ;
#329 = ORIENTED_EDGE ( 'NONE', *, *, #338, .F. ) ;
#330 = MECHANICAL_DESIGN_GEOMETRIC_PRESENTATION_REPRESENTATION (  '', ( #208 ), #337 ) ;
#331 = UNCERTAINTY_MEASURE_WITH_UNIT (LENGTH_MEASURE( 1.000000000000000100E-005 ), #209, 'distance_accuracy_value', 'NONE');
#332 = DIRECTION ( 'NONE',  ( 1.000000000000000000, 0.0000000000000000000, 0.0000000000000000000 ) ) ;
#333 = EDGE_LOOP ( 'NONE', ( #329, #88, #168, #149 ) ) ;
#334 = SURFACE_SIDE_STYLE ('',( #217 ) ) ;
#335 = EDGE_LOOP ( 'NONE', ( #153, #45, #73, #248 ) ) ;
#336 = UNCERTAINTY_MEASURE_WITH_UNIT (LENGTH_MEASURE( 1.000000000000000100E-005 ), #304, 'distance_accuracy_value', 'NONE');
#337 =( GEOMETRIC_REPRESENTATION_CONTEXT ( 3 ) GLOBAL_UNCERTAINTY_ASSIGNED_CONTEXT ( ( #336 ) ) GLOBAL_UNIT_ASSIGNED_CONTEXT ( ( #304, #241, #204 ) ) REPRESENTATION_CONTEXT ( 'NONE', 'WORKASPACE' ) );
#338 = EDGE_CURVE ( 'NONE', #86, #51, #164, .T. ) ;
#339 = SURFACE_SIDE_STYLE ('',( #109 ) ) ;
#340 = ADVANCED_FACE ( 'NONE', ( #37, #94 ), #203, .F. ) ;
#341 = NEXT_ASSEMBLY_USAGE_OCCURRENCE ( 'NAUO1', ' ', ' ', #25, #28, $ ) ;
ENDSEC;
END-ISO-10303-21;
