ISO-10303-21;
HEADER;
FILE_DESCRIPTION (( 'STEP AP214' ),
    '1' );
FILE_NAME ('TU0805C-500.step.step',
    '2018-06-27T14:52:58',
    ( '' ),
    ( '' ),
    'SwSTEP 2.0',
    'SolidWorks 2018',
    '' );
FILE_SCHEMA (( 'AUTOMOTIVE_DESIGN' ));
ENDSEC;

DATA;
#1 = CARTESIAN_POINT ( 'NONE',  ( 111.3137084989847523, 0.0000000000000000000, 0.0000000000000000000 ) ) ;
#2 = MECHANICAL_DESIGN_GEOMETRIC_PRESENTATION_REPRESENTATION (  '', ( #95 ), #21 ) ;
#3 = EDGE_LOOP ( 'NONE', ( #147, #20 ) ) ;
#4 =( LENGTH_UNIT ( ) NAMED_UNIT ( * ) SI_UNIT ( .MILLI., .METRE. ) );
#5 = CARTESIAN_POINT ( 'NONE',  ( 111.3137084989847523, 0.0000000000000000000, 0.0000000000000000000 ) ) ;
#6 = DIRECTION ( 'NONE',  ( 0.0000000000000000000, 0.0000000000000000000, -1.000000000000000000 ) ) ;
#7 =( NAMED_UNIT ( * ) SI_UNIT ( $, .STERADIAN. ) SOLID_ANGLE_UNIT ( ) );
#8 = DIRECTION ( 'NONE',  ( 0.0000000000000000000, 0.0000000000000000000, 1.000000000000000000 ) ) ;
#9 = PLANE ( 'NONE',  #51 ) ;
#10 = DIRECTION ( 'NONE',  ( 1.000000000000000000, 0.0000000000000000000, 0.0000000000000000000 ) ) ;
#11 = ADVANCED_FACE ( 'NONE', ( #297, #80 ), #9, .F. ) ;
#12 = ADVANCED_FACE ( 'NONE', ( #166 ), #334, .F. ) ;
#13 = PRESENTATION_STYLE_ASSIGNMENT (( #68 ) ) ;
#14 = STYLED_ITEM ( 'NONE', ( #46 ), #123 ) ;
#15 = VERTEX_POINT ( 'NONE', #94 ) ;
#16 = STYLED_ITEM ( 'NONE', ( #107 ), #11 ) ;
#17 = DIRECTION ( 'NONE',  ( 0.0000000000000000000, 0.0000000000000000000, -1.000000000000000000 ) ) ;
#18 = CARTESIAN_POINT ( 'NONE',  ( 100.0000000000000000, 0.0000000000000000000, 0.0000000000000000000 ) ) ;
#19 = CIRCLE ( 'NONE', #71, 2.500000000000000000 ) ;
#20 = ORIENTED_EDGE ( 'NONE', *, *, #261, .T. ) ;
#21 =( GEOMETRIC_REPRESENTATION_CONTEXT ( 3 ) GLOBAL_UNCERTAINTY_ASSIGNED_CONTEXT ( ( #254 ) ) GLOBAL_UNIT_ASSIGNED_CONTEXT ( ( #114, #191, #329 ) ) REPRESENTATION_CONTEXT ( 'NONE', 'WORKASPACE' ) );
#22 = CARTESIAN_POINT ( 'NONE',  ( 111.3137084989847523, 0.0000000000000000000, 0.0000000000000000000 ) ) ;
#23 = SURFACE_STYLE_FILL_AREA ( #189 ) ;
#24 = EDGE_LOOP ( 'NONE', ( #300, #241 ) ) ;
#25 = CARTESIAN_POINT ( 'NONE',  ( 111.3137084989847523, 0.0000000000000000000, 2.500000000000000000 ) ) ;
#26 = PRODUCT_DEFINITION_FORMATION_WITH_SPECIFIED_SOURCE ( 'ANY', '', #27, .NOT_KNOWN. ) ;
#27 = PRODUCT ( 'TU0805C-500.step', 'TU0805C-500.step', '', ( #292 ) ) ;
#28 = FILL_AREA_STYLE_COLOUR ( '', #206 ) ;
#29 = SHAPE_REPRESENTATION ( 'TU0805C-500.step', ( #186, #238 ), #256 ) ;
#30 = SHAPE_REPRESENTATION ( 'TU0805C-500.step_TU3076 Tube_0805C', ( #248 ), #48 ) ;
#31 =( NAMED_UNIT ( * ) PLANE_ANGLE_UNIT ( ) SI_UNIT ( $, .RADIAN. ) );
#32 = FACE_OUTER_BOUND ( 'NONE', #321, .T. ) ;
#33 = ORIENTED_EDGE ( 'NONE', *, *, #283, .F. ) ;
#34 = SURFACE_SIDE_STYLE ('',( #53 ) ) ;
#35 = CARTESIAN_POINT ( 'NONE',  ( 100.0000000000000000, 3.061616997868383141E-16, -2.500000000000000000 ) ) ;
#36 = FILL_AREA_STYLE_COLOUR ( '', #92 ) ;
#37 = SURFACE_STYLE_USAGE ( .BOTH. , #164 ) ;
#38 = AXIS2_PLACEMENT_3D ( 'NONE', #288, #232, #260 ) ;
#39 = CYLINDRICAL_SURFACE ( 'NONE', #96, 4.000000000000000000 ) ;
#40 = PRODUCT_DEFINITION_SHAPE ( 'NONE', 'NONE',  #204 ) ;
#41 = PRESENTATION_STYLE_ASSIGNMENT (( #214 ) ) ;
#42 =( REPRESENTATION_RELATIONSHIP ('NONE','NONE', #29, #30 ) REPRESENTATION_RELATIONSHIP_WITH_TRANSFORMATION ( #99 )SHAPE_REPRESENTATION_RELATIONSHIP( ) );
#43 = ORIENTED_EDGE ( 'NONE', *, *, #319, .F. ) ;
#44 = CARTESIAN_POINT ( 'NONE',  ( 100.0000000000000000, 0.0000000000000000000, 0.0000000000000000000 ) ) ;
#45 = FACE_OUTER_BOUND ( 'NONE', #100, .T. ) ;
#46 = PRESENTATION_STYLE_ASSIGNMENT (( #101 ) ) ;
#47 = VERTEX_POINT ( 'NONE', #302 ) ;
#48 =( GEOMETRIC_REPRESENTATION_CONTEXT ( 3 ) GLOBAL_UNCERTAINTY_ASSIGNED_CONTEXT ( ( #210 ) ) GLOBAL_UNIT_ASSIGNED_CONTEXT ( ( #58, #324, #62 ) ) REPRESENTATION_CONTEXT ( 'NONE', 'WORKASPACE' ) );
#49 = CARTESIAN_POINT ( 'NONE',  ( 0.0000000000000000000, 0.0000000000000000000, 0.0000000000000000000 ) ) ;
#50 = ORIENTED_EDGE ( 'NONE', *, *, #65, .T. ) ;
#51 = AXIS2_PLACEMENT_3D ( 'NONE', #133, #188, #317 ) ;
#52 = DIRECTION ( 'NONE',  ( 1.000000000000000000, 0.0000000000000000000, 0.0000000000000000000 ) ) ;
#53 = SURFACE_STYLE_FILL_AREA ( #183 ) ;
#54 = SURFACE_SIDE_STYLE ('',( #290 ) ) ;
#55 =( GEOMETRIC_REPRESENTATION_CONTEXT ( 3 ) GLOBAL_UNCERTAINTY_ASSIGNED_CONTEXT ( ( #168 ) ) GLOBAL_UNIT_ASSIGNED_CONTEXT ( ( #4, #213, #160 ) ) REPRESENTATION_CONTEXT ( 'NONE', 'WORKASPACE' ) );
#56 = CARTESIAN_POINT ( 'NONE',  ( 100.0000000000000000, 4.898587196589412829E-16, -4.000000000000000000 ) ) ;
#57 = DIRECTION ( 'NONE',  ( 0.0000000000000000000, 0.0000000000000000000, -1.000000000000000000 ) ) ;
#58 =( LENGTH_UNIT ( ) NAMED_UNIT ( * ) SI_UNIT ( .MILLI., .METRE. ) );
#59 = EDGE_LOOP ( 'NONE', ( #143, #33, #285, #273 ) ) ;
#60 =( LENGTH_UNIT ( ) NAMED_UNIT ( * ) SI_UNIT ( .MILLI., .METRE. ) );
#61 = FILL_AREA_STYLE ('',( #314 ) ) ;
#62 =( NAMED_UNIT ( * ) SI_UNIT ( $, .STERADIAN. ) SOLID_ANGLE_UNIT ( ) );
#63 = STYLED_ITEM ( 'NONE', ( #255 ), #165 ) ;
#64 = ADVANCED_FACE ( 'NONE', ( #32 ), #105, .F. ) ;
#65 = EDGE_CURVE ( 'NONE', #47, #332, #175, .T. ) ;
#66 = PRODUCT_DEFINITION ( 'UNKNOWN', '', #259, #179 ) ;
#67 = VERTEX_POINT ( 'NONE', #275 ) ;
#68 = SURFACE_STYLE_USAGE ( .BOTH. , #221 ) ;
#69 = CARTESIAN_POINT ( 'NONE',  ( 111.3137084989847523, 4.898587196589412829E-16, -4.000000000000000000 ) ) ;
#70 = SURFACE_STYLE_FILL_AREA ( #73 ) ;
#71 = AXIS2_PLACEMENT_3D ( 'NONE', #211, #239, #242 ) ;
#72 = FILL_AREA_STYLE ('',( #229 ) ) ;
#73 = FILL_AREA_STYLE ('',( #131 ) ) ;
#74 = ORIENTED_EDGE ( 'NONE', *, *, #91, .T. ) ;
#75 =( GEOMETRIC_REPRESENTATION_CONTEXT ( 3 ) GLOBAL_UNCERTAINTY_ASSIGNED_CONTEXT ( ( #98 ) ) GLOBAL_UNIT_ASSIGNED_CONTEXT ( ( #154, #152, #78 ) ) REPRESENTATION_CONTEXT ( 'NONE', 'WORKASPACE' ) );
#76 = CARTESIAN_POINT ( 'NONE',  ( 0.0000000000000000000, 0.0000000000000000000, 0.0000000000000000000 ) ) ;
#77 = DIRECTION ( 'NONE',  ( 1.000000000000000000, 0.0000000000000000000, 0.0000000000000000000 ) ) ;
#78 =( NAMED_UNIT ( * ) SI_UNIT ( $, .STERADIAN. ) SOLID_ANGLE_UNIT ( ) );
#79 = CIRCLE ( 'NONE', #220, 4.000000000000000000 ) ;
#80 = FACE_BOUND ( 'NONE', #3, .T. ) ;
#81 =( NAMED_UNIT ( * ) PLANE_ANGLE_UNIT ( ) SI_UNIT ( $, .RADIAN. ) );
#82 = PRESENTATION_LAYER_ASSIGNMENT (  '', '', ( #202 ) ) ;
#83 = DIRECTION ( 'NONE',  ( -1.000000000000000000, -0.0000000000000000000, -0.0000000000000000000 ) ) ;
#84 = CARTESIAN_POINT ( 'NONE',  ( 111.3137084989847523, 0.0000000000000000000, 0.0000000000000000000 ) ) ;
#85 = CIRCLE ( 'NONE', #272, 4.000000000000000000 ) ;
#86 = ORIENTED_EDGE ( 'NONE', *, *, #91, .F. ) ;
#87 = DIRECTION ( 'NONE',  ( 0.0000000000000000000, 0.0000000000000000000, 1.000000000000000000 ) ) ;
#88 = PRESENTATION_LAYER_ASSIGNMENT (  '', '', ( #63 ) ) ;
#89 = VECTOR ( 'NONE', #112, 1000.000000000000000 ) ;
#90 = ORIENTED_EDGE ( 'NONE', *, *, #228, .F. ) ;
#91 = EDGE_CURVE ( 'NONE', #266, #201, #79, .T. ) ;
#92 = COLOUR_RGB ( '',0.9686274509803921573, 1.000000000000000000, 0.9803921568627450567 ) ;
#93 = ORIENTED_EDGE ( 'NONE', *, *, #261, .F. ) ;
#94 = CARTESIAN_POINT ( 'NONE',  ( 0.0000000000000000000, 0.0000000000000000000, 2.500000000000000000 ) ) ;
#95 = STYLED_ITEM ( 'NONE', ( #41 ), #12 ) ;
#96 = AXIS2_PLACEMENT_3D ( 'NONE', #84, #83, #271 ) ;
#97 = DIRECTION ( 'NONE',  ( 0.0000000000000000000, 0.0000000000000000000, -1.000000000000000000 ) ) ;
#98 = UNCERTAINTY_MEASURE_WITH_UNIT (LENGTH_MEASURE( 1.000000000000000082E-05 ), #154, 'distance_accuracy_value', 'NONE');
#99 = ITEM_DEFINED_TRANSFORMATION ( 'NONE', 'NONE', #238,  #248 ) ;
#100 = EDGE_LOOP ( 'NONE', ( #86, #235, #247, #185 ) ) ;
#101 = SURFACE_STYLE_USAGE ( .BOTH. , #102 ) ;
#102 = SURFACE_SIDE_STYLE ('',( #116 ) ) ;
#103 = SURFACE_STYLE_USAGE ( .BOTH. , #178 ) ;
#104 = DIRECTION ( 'NONE',  ( 0.0000000000000000000, 0.0000000000000000000, -1.000000000000000000 ) ) ;
#105 = CYLINDRICAL_SURFACE ( 'NONE', #142, 2.500000000000000000 ) ;
#106 = AXIS2_PLACEMENT_3D ( 'NONE', #76, #231, #236 ) ;
#107 = PRESENTATION_STYLE_ASSIGNMENT (( #320 ) ) ;
#108 = CARTESIAN_POINT ( 'NONE',  ( 0.0000000000000000000, 3.061616997868383141E-16, -2.500000000000000000 ) ) ;
#109 = APPLICATION_CONTEXT ( 'automotive_design' ) ;
#110 = DIRECTION ( 'NONE',  ( 1.000000000000000000, 0.0000000000000000000, 0.0000000000000000000 ) ) ;
#111 = COLOUR_RGB ( '',0.9686274509803921573, 1.000000000000000000, 0.9803921568627450567 ) ;
#112 = DIRECTION ( 'NONE',  ( -1.000000000000000000, -0.0000000000000000000, -0.0000000000000000000 ) ) ;
#113 = DIRECTION ( 'NONE',  ( 0.0000000000000000000, 0.0000000000000000000, 1.000000000000000000 ) ) ;
#114 =( LENGTH_UNIT ( ) NAMED_UNIT ( * ) SI_UNIT ( .MILLI., .METRE. ) );
#115 = PRESENTATION_STYLE_ASSIGNMENT (( #103 ) ) ;
#116 = SURFACE_STYLE_FILL_AREA ( #158 ) ;
#117 = MECHANICAL_DESIGN_GEOMETRIC_PRESENTATION_REPRESENTATION (  '', ( #16 ), #330 ) ;
#118 = STYLED_ITEM ( 'NONE', ( #13 ), #64 ) ;
#119 = DIRECTION ( 'NONE',  ( 0.0000000000000000000, 0.0000000000000000000, 1.000000000000000000 ) ) ;
#120 =( NAMED_UNIT ( * ) PLANE_ANGLE_UNIT ( ) SI_UNIT ( $, .RADIAN. ) );
#121 = ADVANCED_BREP_SHAPE_REPRESENTATION ( '', ( #123, #248 ), #48 ) ;
#122 = MECHANICAL_DESIGN_GEOMETRIC_PRESENTATION_REPRESENTATION (  '', ( #63 ), #193 ) ;
#123 = MANIFOLD_SOLID_BREP ( 'Tube', #249 ) ;
#124 = ORIENTED_EDGE ( 'NONE', *, *, #65, .F. ) ;
#125 = DIRECTION ( 'NONE',  ( 0.0000000000000000000, 0.0000000000000000000, 1.000000000000000000 ) ) ;
#126 = DIRECTION ( 'NONE',  ( 0.0000000000000000000, 0.0000000000000000000, -1.000000000000000000 ) ) ;
#127 = DIRECTION ( 'NONE',  ( -1.000000000000000000, -0.0000000000000000000, -0.0000000000000000000 ) ) ;
#128 = PRESENTATION_LAYER_ASSIGNMENT (  '', '', ( #208 ) ) ;
#129 = FILL_AREA_STYLE ('',( #28 ) ) ;
#130 = UNCERTAINTY_MEASURE_WITH_UNIT (LENGTH_MEASURE( 1.000000000000000082E-05 ), #60, 'distance_accuracy_value', 'NONE');
#131 = FILL_AREA_STYLE_COLOUR ( '', #140 ) ;
#132 = APPLICATION_PROTOCOL_DEFINITION ( 'draft international standard', 'automotive_design', 1998, #109 ) ;
#133 = CARTESIAN_POINT ( 'NONE',  ( 0.0000000000000000000, 0.0000000000000000000, 0.0000000000000000000 ) ) ;
#134 = MECHANICAL_DESIGN_GEOMETRIC_PRESENTATION_REPRESENTATION (  '', ( #118 ), #243 ) ;
#135 = ORIENTED_EDGE ( 'NONE', *, *, #319, .T. ) ;
#136 = CARTESIAN_POINT ( 'NONE',  ( 100.0000000000000000, 0.0000000000000000000, 0.0000000000000000000 ) ) ;
#137 = FILL_AREA_STYLE_COLOUR ( '', #245 ) ;
#138 = APPLICATION_CONTEXT ( 'automotive_design' ) ;
#139 = APPLICATION_CONTEXT ( 'automotive_design' ) ;
#140 = COLOUR_RGB ( '',0.9686274509803921573, 1.000000000000000000, 0.9803921568627450567 ) ;
#141 =( LENGTH_UNIT ( ) NAMED_UNIT ( * ) SI_UNIT ( .MILLI., .METRE. ) );
#142 = AXIS2_PLACEMENT_3D ( 'NONE', #22, #250, #125 ) ;
#143 = ORIENTED_EDGE ( 'NONE', *, *, #153, .F. ) ;
#144 = PRODUCT_DEFINITION_CONTEXT ( 'detailed design', #139, 'design' ) ;
#145 = FILL_AREA_STYLE_COLOUR ( '', #200 ) ;
#146 = PRESENTATION_LAYER_ASSIGNMENT (  '', '', ( #95 ) ) ;
#147 = ORIENTED_EDGE ( 'NONE', *, *, #228, .T. ) ;
#148 =( GEOMETRIC_REPRESENTATION_CONTEXT ( 3 ) GLOBAL_UNCERTAINTY_ASSIGNED_CONTEXT ( ( #172 ) ) GLOBAL_UNIT_ASSIGNED_CONTEXT ( ( #141, #81, #7 ) ) REPRESENTATION_CONTEXT ( 'NONE', 'WORKASPACE' ) );
#149 = CIRCLE ( 'NONE', #301, 4.000000000000000000 ) ;
#150 = DIRECTION ( 'NONE',  ( 0.0000000000000000000, 0.0000000000000000000, 1.000000000000000000 ) ) ;
#151 = EDGE_LOOP ( 'NONE', ( #230, #135, #282, #93 ) ) ;
#152 =( NAMED_UNIT ( * ) PLANE_ANGLE_UNIT ( ) SI_UNIT ( $, .RADIAN. ) );
#153 = EDGE_CURVE ( 'NONE', #266, #67, #309, .T. ) ;
#154 =( LENGTH_UNIT ( ) NAMED_UNIT ( * ) SI_UNIT ( .MILLI., .METRE. ) );
#155 =( LENGTH_UNIT ( ) NAMED_UNIT ( * ) SI_UNIT ( .MILLI., .METRE. ) );
#156 = MECHANICAL_DESIGN_GEOMETRIC_PRESENTATION_REPRESENTATION (  '', ( #202 ), #199 ) ;
#157 = PRESENTATION_STYLE_ASSIGNMENT (( #37 ) ) ;
#158 = FILL_AREA_STYLE ('',( #145 ) ) ;
#159 = DIRECTION ( 'NONE',  ( -1.000000000000000000, -0.0000000000000000000, -0.0000000000000000000 ) ) ;
#160 =( NAMED_UNIT ( * ) SI_UNIT ( $, .STERADIAN. ) SOLID_ANGLE_UNIT ( ) );
#161 =( NAMED_UNIT ( * ) PLANE_ANGLE_UNIT ( ) SI_UNIT ( $, .RADIAN. ) );
#162 = UNCERTAINTY_MEASURE_WITH_UNIT (LENGTH_MEASURE( 1.000000000000000082E-05 ), #339, 'distance_accuracy_value', 'NONE');
#163 = SURFACE_STYLE_USAGE ( .BOTH. , #217 ) ;
#164 = SURFACE_SIDE_STYLE ('',( #296 ) ) ;
#165 = ADVANCED_FACE ( 'NONE', ( #281, #169 ), #234, .T. ) ;
#166 = FACE_OUTER_BOUND ( 'NONE', #151, .T. ) ;
#167 = CARTESIAN_POINT ( 'NONE',  ( 0.0000000000000000000, 0.0000000000000000000, 0.0000000000000000000 ) ) ;
#168 = UNCERTAINTY_MEASURE_WITH_UNIT (LENGTH_MEASURE( 1.000000000000000082E-05 ), #4, 'distance_accuracy_value', 'NONE');
#169 = FACE_OUTER_BOUND ( 'NONE', #335, .T. ) ;
#170 = AXIS2_PLACEMENT_3D ( 'NONE', #269, #87, #267 ) ;
#171 = AXIS2_PLACEMENT_3D ( 'NONE', #180, #312, #57 ) ;
#172 = UNCERTAINTY_MEASURE_WITH_UNIT (LENGTH_MEASURE( 1.000000000000000082E-05 ), #141, 'distance_accuracy_value', 'NONE');
#173 = VECTOR ( 'NONE', #251, 1000.000000000000000 ) ;
#174 = ORIENTED_EDGE ( 'NONE', *, *, #283, .T. ) ;
#175 = CIRCLE ( 'NONE', #280, 2.500000000000000000 ) ;
#176 = AXIS2_PLACEMENT_3D ( 'NONE', #49, #77, #104 ) ;
#177 = VECTOR ( 'NONE', #127, 1000.000000000000000 ) ;
#178 = SURFACE_SIDE_STYLE ('',( #70 ) ) ;
#179 = PRODUCT_DEFINITION_CONTEXT ( 'detailed design', #274, 'design' ) ;
#180 = CARTESIAN_POINT ( 'NONE',  ( 0.0000000000000000000, 0.0000000000000000000, 0.0000000000000000000 ) ) ;
#181 = SURFACE_STYLE_USAGE ( .BOTH. , #54 ) ;
#182 = APPLICATION_PROTOCOL_DEFINITION ( 'draft international standard', 'automotive_design', 1998, #139 ) ;
#183 = FILL_AREA_STYLE ('',( #137 ) ) ;
#184 = MECHANICAL_DESIGN_GEOMETRIC_PRESENTATION_REPRESENTATION (  '', ( #208 ), #148 ) ;
#185 = ORIENTED_EDGE ( 'NONE', *, *, #278, .F. ) ;
#186 = AXIS2_PLACEMENT_3D ( 'NONE', #299, #237, #293 ) ;
#187 =( NAMED_UNIT ( * ) SI_UNIT ( $, .STERADIAN. ) SOLID_ANGLE_UNIT ( ) );
#188 = DIRECTION ( 'NONE',  ( 1.000000000000000000, 0.0000000000000000000, 0.0000000000000000000 ) ) ;
#189 = FILL_AREA_STYLE ('',( #36 ) ) ;
#190 = CYLINDRICAL_SURFACE ( 'NONE', #227, 4.000000000000000000 ) ;
#191 =( NAMED_UNIT ( * ) PLANE_ANGLE_UNIT ( ) SI_UNIT ( $, .RADIAN. ) );
#192 = SURFACE_STYLE_FILL_AREA ( #72 ) ;
#193 =( GEOMETRIC_REPRESENTATION_CONTEXT ( 3 ) GLOBAL_UNCERTAINTY_ASSIGNED_CONTEXT ( ( #162 ) ) GLOBAL_UNIT_ASSIGNED_CONTEXT ( ( #339, #263, #307 ) ) REPRESENTATION_CONTEXT ( 'NONE', 'WORKASPACE' ) );
#194 = APPLICATION_PROTOCOL_DEFINITION ( 'draft international standard', 'automotive_design', 1998, #274 ) ;
#195 = EDGE_CURVE ( 'NONE', #67, #305, #253, .T. ) ;
#196 = EDGE_LOOP ( 'NONE', ( #124, #43 ) ) ;
#197 =( NAMED_UNIT ( * ) SI_UNIT ( $, .STERADIAN. ) SOLID_ANGLE_UNIT ( ) );
#198 = CONTEXT_DEPENDENT_SHAPE_REPRESENTATION ( #42, #203 ) ;
#199 =( GEOMETRIC_REPRESENTATION_CONTEXT ( 3 ) GLOBAL_UNCERTAINTY_ASSIGNED_CONTEXT ( ( #310 ) ) GLOBAL_UNIT_ASSIGNED_CONTEXT ( ( #155, #31, #287 ) ) REPRESENTATION_CONTEXT ( 'NONE', 'WORKASPACE' ) );
#200 = COLOUR_RGB ( '',0.0000000000000000000, 0.5843137254901961120, 0.9058823529411764719 ) ;
#201 = VERTEX_POINT ( 'NONE', #337 ) ;
#202 = STYLED_ITEM ( 'NONE', ( #115 ), #246 ) ;
#203 = PRODUCT_DEFINITION_SHAPE ( 'NONE', 'NONE',  #341 ) ;
#204 = PRODUCT_DEFINITION ( 'UNKNOWN', '', #26, #144 ) ;
#205 = FACE_OUTER_BOUND ( 'NONE', #59, .T. ) ;
#206 = COLOUR_RGB ( '',0.9686274509803921573, 1.000000000000000000, 0.9803921568627450567 ) ;
#207 = CARTESIAN_POINT ( 'NONE',  ( 0.0000000000000000000, 0.0000000000000000000, 0.0000000000000000000 ) ) ;
#208 = STYLED_ITEM ( 'NONE', ( #157 ), #322 ) ;
#209 = SHAPE_REPRESENTATION_RELATIONSHIP ( 'NONE' , 'NONE' ,  #30, #121 ) ;
#210 = UNCERTAINTY_MEASURE_WITH_UNIT (LENGTH_MEASURE( 1.000000000000000082E-05 ), #58, 'distance_accuracy_value', 'NONE');
#211 = CARTESIAN_POINT ( 'NONE',  ( 100.0000000000000000, 0.0000000000000000000, 0.0000000000000000000 ) ) ;
#212 = FILL_AREA_STYLE_COLOUR ( '', #308 ) ;
#213 =( NAMED_UNIT ( * ) PLANE_ANGLE_UNIT ( ) SI_UNIT ( $, .RADIAN. ) );
#214 = SURFACE_STYLE_USAGE ( .BOTH. , #34 ) ;
#215 = CIRCLE ( 'NONE', #171, 2.500000000000000000 ) ;
#216 = VERTEX_POINT ( 'NONE', #108 ) ;
#217 = SURFACE_SIDE_STYLE ('',( #23 ) ) ;
#218 = MECHANICAL_DESIGN_GEOMETRIC_PRESENTATION_REPRESENTATION (  '', ( #315 ), #55 ) ;
#219 = VECTOR ( 'NONE', #340, 1000.000000000000000 ) ;
#220 = AXIS2_PLACEMENT_3D ( 'NONE', #18, #223, #97 ) ;
#221 = SURFACE_SIDE_STYLE ('',( #192 ) ) ;
#222 = PRODUCT_RELATED_PRODUCT_CATEGORY ( 'part', '', ( #27 ) ) ;
#223 = DIRECTION ( 'NONE',  ( 1.000000000000000000, 0.0000000000000000000, 0.0000000000000000000 ) ) ;
#224 = EDGE_CURVE ( 'NONE', #305, #67, #85, .T. ) ;
#225 = PRODUCT_DEFINITION_SHAPE ( 'NONE', 'NONE',  #66 ) ;
#226 = PRESENTATION_STYLE_ASSIGNMENT (( #163 ) ) ;
#227 = AXIS2_PLACEMENT_3D ( 'NONE', #1, #313, #150 ) ;
#228 = EDGE_CURVE ( 'NONE', #15, #216, #215, .T. ) ;
#229 = FILL_AREA_STYLE_COLOUR ( '', #327 ) ;
#230 = ORIENTED_EDGE ( 'NONE', *, *, #336, .F. ) ;
#231 = DIRECTION ( 'NONE',  ( 1.000000000000000000, 0.0000000000000000000, 0.0000000000000000000 ) ) ;
#232 = DIRECTION ( 'NONE',  ( 1.000000000000000000, 0.0000000000000000000, 0.0000000000000000000 ) ) ;
#233 = AXIS2_PLACEMENT_3D ( 'NONE', #5, #159, #119 ) ;
#234 = PLANE ( 'NONE',  #38 ) ;
#235 = ORIENTED_EDGE ( 'NONE', *, *, #153, .T. ) ;
#236 = DIRECTION ( 'NONE',  ( 0.0000000000000000000, 0.0000000000000000000, -1.000000000000000000 ) ) ;
#237 = DIRECTION ( 'NONE',  ( 0.0000000000000000000, 0.0000000000000000000, 1.000000000000000000 ) ) ;
#238 = AXIS2_PLACEMENT_3D ( 'NONE', #294, #8, #10 ) ;
#239 = DIRECTION ( 'NONE',  ( 1.000000000000000000, 0.0000000000000000000, 0.0000000000000000000 ) ) ;
#240 = CIRCLE ( 'NONE', #106, 2.500000000000000000 ) ;
#241 = ORIENTED_EDGE ( 'NONE', *, *, #195, .F. ) ;
#242 = DIRECTION ( 'NONE',  ( 0.0000000000000000000, 0.0000000000000000000, -1.000000000000000000 ) ) ;
#243 =( GEOMETRIC_REPRESENTATION_CONTEXT ( 3 ) GLOBAL_UNCERTAINTY_ASSIGNED_CONTEXT ( ( #303 ) ) GLOBAL_UNIT_ASSIGNED_CONTEXT ( ( #258, #120, #197 ) ) REPRESENTATION_CONTEXT ( 'NONE', 'WORKASPACE' ) );
#244 = FILL_AREA_STYLE ('',( #212 ) ) ;
#245 = COLOUR_RGB ( '',0.9686274509803921573, 1.000000000000000000, 0.9803921568627450567 ) ;
#246 = ADVANCED_FACE ( 'NONE', ( #205 ), #190, .T. ) ;
#247 = ORIENTED_EDGE ( 'NONE', *, *, #195, .T. ) ;
#248 = AXIS2_PLACEMENT_3D ( 'NONE', #167, #113, #265 ) ;
#249 = CLOSED_SHELL ( 'NONE', ( #64, #322, #246, #11, #12, #165 ) ) ;
#250 = DIRECTION ( 'NONE',  ( -1.000000000000000000, -0.0000000000000000000, -0.0000000000000000000 ) ) ;
#251 = DIRECTION ( 'NONE',  ( -1.000000000000000000, -0.0000000000000000000, -0.0000000000000000000 ) ) ;
#252 = PRESENTATION_LAYER_ASSIGNMENT (  '', '', ( #14 ) ) ;
#253 = CIRCLE ( 'NONE', #176, 4.000000000000000000 ) ;
#254 = UNCERTAINTY_MEASURE_WITH_UNIT (LENGTH_MEASURE( 1.000000000000000082E-05 ), #114, 'distance_accuracy_value', 'NONE');
#255 = PRESENTATION_STYLE_ASSIGNMENT (( #181 ) ) ;
#256 =( GEOMETRIC_REPRESENTATION_CONTEXT ( 3 ) GLOBAL_UNCERTAINTY_ASSIGNED_CONTEXT ( ( #130 ) ) GLOBAL_UNIT_ASSIGNED_CONTEXT ( ( #60, #325, #270 ) ) REPRESENTATION_CONTEXT ( 'NONE', 'WORKASPACE' ) );
#257 = SURFACE_STYLE_FILL_AREA ( #61 ) ;
#258 =( LENGTH_UNIT ( ) NAMED_UNIT ( * ) SI_UNIT ( .MILLI., .METRE. ) );
#259 = PRODUCT_DEFINITION_FORMATION_WITH_SPECIFIED_SOURCE ( 'ANY', '', #279, .NOT_KNOWN. ) ;
#260 = DIRECTION ( 'NONE',  ( 0.0000000000000000000, 0.0000000000000000000, -1.000000000000000000 ) ) ;
#261 = EDGE_CURVE ( 'NONE', #216, #15, #240, .T. ) ;
#262 = CARTESIAN_POINT ( 'NONE',  ( 0.0000000000000000000, 0.0000000000000000000, 4.000000000000000000 ) ) ;
#263 =( NAMED_UNIT ( * ) PLANE_ANGLE_UNIT ( ) SI_UNIT ( $, .RADIAN. ) );
#264 = MECHANICAL_DESIGN_GEOMETRIC_PRESENTATION_REPRESENTATION (  '', ( #14 ), #75 ) ;
#265 = DIRECTION ( 'NONE',  ( 1.000000000000000000, 0.0000000000000000000, 0.0000000000000000000 ) ) ;
#266 = VERTEX_POINT ( 'NONE', #56 ) ;
#267 = DIRECTION ( 'NONE',  ( 1.000000000000000000, 0.0000000000000000000, 0.0000000000000000000 ) ) ;
#268 = EDGE_CURVE ( 'NONE', #47, #15, #277, .T. ) ;
#269 = CARTESIAN_POINT ( 'NONE',  ( 0.0000000000000000000, 0.0000000000000000000, 0.0000000000000000000 ) ) ;
#270 =( NAMED_UNIT ( * ) SI_UNIT ( $, .STERADIAN. ) SOLID_ANGLE_UNIT ( ) );
#271 = DIRECTION ( 'NONE',  ( 0.0000000000000000000, 0.0000000000000000000, 1.000000000000000000 ) ) ;
#272 = AXIS2_PLACEMENT_3D ( 'NONE', #207, #284, #126 ) ;
#273 = ORIENTED_EDGE ( 'NONE', *, *, #224, .T. ) ;
#274 = APPLICATION_CONTEXT ( 'automotive_design' ) ;
#275 = CARTESIAN_POINT ( 'NONE',  ( 0.0000000000000000000, 4.898587196589412829E-16, -4.000000000000000000 ) ) ;
#276 = PRODUCT_RELATED_PRODUCT_CATEGORY ( 'part', '', ( #279 ) ) ;
#277 = LINE ( 'NONE', #25, #177 ) ;
#278 = EDGE_CURVE ( 'NONE', #201, #305, #326, .T. ) ;
#279 = PRODUCT ( 'TU0805C-500.step_TU3076 Tube_0805C', 'TU0805C-500.step_TU3076 Tube_0805C', '', ( #318 ) ) ;
#280 = AXIS2_PLACEMENT_3D ( 'NONE', #44, #52, #17 ) ;
#281 = FACE_BOUND ( 'NONE', #196, .T. ) ;
#282 = ORIENTED_EDGE ( 'NONE', *, *, #268, .T. ) ;
#283 = EDGE_CURVE ( 'NONE', #201, #266, #149, .T. ) ;
#284 = DIRECTION ( 'NONE',  ( 1.000000000000000000, 0.0000000000000000000, 0.0000000000000000000 ) ) ;
#285 = ORIENTED_EDGE ( 'NONE', *, *, #278, .T. ) ;
#286 = CARTESIAN_POINT ( 'NONE',  ( 111.3137084989847523, 0.0000000000000000000, 4.000000000000000000 ) ) ;
#287 =( NAMED_UNIT ( * ) SI_UNIT ( $, .STERADIAN. ) SOLID_ANGLE_UNIT ( ) );
#288 = CARTESIAN_POINT ( 'NONE',  ( 100.0000000000000000, 0.0000000000000000000, 0.0000000000000000000 ) ) ;
#289 = PRESENTATION_LAYER_ASSIGNMENT (  '', '', ( #16 ) ) ;
#290 = SURFACE_STYLE_FILL_AREA ( #129 ) ;
#291 = ORIENTED_EDGE ( 'NONE', *, *, #268, .F. ) ;
#292 = PRODUCT_CONTEXT ( 'NONE', #138, 'mechanical' ) ;
#293 = DIRECTION ( 'NONE',  ( 1.000000000000000000, 0.0000000000000000000, 0.0000000000000000000 ) ) ;
#294 = CARTESIAN_POINT ( 'NONE',  ( 0.0000000000000000000, 0.0000000000000000000, 0.0000000000000000000 ) ) ;
#295 = SURFACE_SIDE_STYLE ('',( #257 ) ) ;
#296 = SURFACE_STYLE_FILL_AREA ( #244 ) ;
#297 = FACE_OUTER_BOUND ( 'NONE', #24, .T. ) ;
#298 = APPLICATION_PROTOCOL_DEFINITION ( 'draft international standard', 'automotive_design', 1998, #138 ) ;
#299 = CARTESIAN_POINT ( 'NONE',  ( 0.0000000000000000000, 0.0000000000000000000, 0.0000000000000000000 ) ) ;
#300 = ORIENTED_EDGE ( 'NONE', *, *, #224, .F. ) ;
#301 = AXIS2_PLACEMENT_3D ( 'NONE', #136, #110, #6 ) ;
#302 = CARTESIAN_POINT ( 'NONE',  ( 100.0000000000000000, 0.0000000000000000000, 2.500000000000000000 ) ) ;
#303 = UNCERTAINTY_MEASURE_WITH_UNIT (LENGTH_MEASURE( 1.000000000000000082E-05 ), #258, 'distance_accuracy_value', 'NONE');
#304 = LINE ( 'NONE', #316, #89 ) ;
#305 = VERTEX_POINT ( 'NONE', #262 ) ;
#306 = UNCERTAINTY_MEASURE_WITH_UNIT (LENGTH_MEASURE( 1.000000000000000082E-05 ), #323, 'distance_accuracy_value', 'NONE');
#307 =( NAMED_UNIT ( * ) SI_UNIT ( $, .STERADIAN. ) SOLID_ANGLE_UNIT ( ) );
#308 = COLOUR_RGB ( '',0.9686274509803921573, 1.000000000000000000, 0.9803921568627450567 ) ;
#309 = LINE ( 'NONE', #69, #173 ) ;
#310 = UNCERTAINTY_MEASURE_WITH_UNIT (LENGTH_MEASURE( 1.000000000000000082E-05 ), #155, 'distance_accuracy_value', 'NONE');
#311 = ORIENTED_EDGE ( 'NONE', *, *, #336, .T. ) ;
#312 = DIRECTION ( 'NONE',  ( 1.000000000000000000, 0.0000000000000000000, 0.0000000000000000000 ) ) ;
#313 = DIRECTION ( 'NONE',  ( -1.000000000000000000, -0.0000000000000000000, -0.0000000000000000000 ) ) ;
#314 = FILL_AREA_STYLE_COLOUR ( '', #111 ) ;
#315 = STYLED_ITEM ( 'NONE', ( #226 ), #121 ) ;
#316 = CARTESIAN_POINT ( 'NONE',  ( 111.3137084989847523, 3.061616997868383141E-16, -2.500000000000000000 ) ) ;
#317 = DIRECTION ( 'NONE',  ( 0.0000000000000000000, 0.0000000000000000000, -1.000000000000000000 ) ) ;
#318 = PRODUCT_CONTEXT ( 'NONE', #109, 'mechanical' ) ;
#319 = EDGE_CURVE ( 'NONE', #332, #47, #19, .T. ) ;
#320 = SURFACE_STYLE_USAGE ( .BOTH. , #295 ) ;
#321 = EDGE_LOOP ( 'NONE', ( #50, #311, #90, #291 ) ) ;
#322 = ADVANCED_FACE ( 'NONE', ( #45 ), #39, .T. ) ;
#323 =( LENGTH_UNIT ( ) NAMED_UNIT ( * ) SI_UNIT ( .MILLI., .METRE. ) );
#324 =( NAMED_UNIT ( * ) PLANE_ANGLE_UNIT ( ) SI_UNIT ( $, .RADIAN. ) );
#325 =( NAMED_UNIT ( * ) PLANE_ANGLE_UNIT ( ) SI_UNIT ( $, .RADIAN. ) );
#326 = LINE ( 'NONE', #286, #219 ) ;
#327 = COLOUR_RGB ( '',0.9686274509803921573, 1.000000000000000000, 0.9803921568627450567 ) ;
#328 = PRESENTATION_LAYER_ASSIGNMENT (  '', '', ( #315 ) ) ;
#329 =( NAMED_UNIT ( * ) SI_UNIT ( $, .STERADIAN. ) SOLID_ANGLE_UNIT ( ) );
#330 =( GEOMETRIC_REPRESENTATION_CONTEXT ( 3 ) GLOBAL_UNCERTAINTY_ASSIGNED_CONTEXT ( ( #306 ) ) GLOBAL_UNIT_ASSIGNED_CONTEXT ( ( #323, #161, #187 ) ) REPRESENTATION_CONTEXT ( 'NONE', 'WORKASPACE' ) );
#331 = SHAPE_DEFINITION_REPRESENTATION ( #40, #29 ) ;
#332 = VERTEX_POINT ( 'NONE', #35 ) ;
#333 = PRESENTATION_LAYER_ASSIGNMENT (  '', '', ( #118 ) ) ;
#334 = CYLINDRICAL_SURFACE ( 'NONE', #233, 2.500000000000000000 ) ;
#335 = EDGE_LOOP ( 'NONE', ( #174, #74 ) ) ;
#336 = EDGE_CURVE ( 'NONE', #332, #216, #304, .T. ) ;
#337 = CARTESIAN_POINT ( 'NONE',  ( 100.0000000000000000, 0.0000000000000000000, 4.000000000000000000 ) ) ;
#338 = SHAPE_DEFINITION_REPRESENTATION ( #225, #30 ) ;
#339 =( LENGTH_UNIT ( ) NAMED_UNIT ( * ) SI_UNIT ( .MILLI., .METRE. ) );
#340 = DIRECTION ( 'NONE',  ( -1.000000000000000000, -0.0000000000000000000, -0.0000000000000000000 ) ) ;
#341 = NEXT_ASSEMBLY_USAGE_OCCURRENCE ( 'NAUO1', ' ', ' ', #204, #66, $ ) ;
ENDSEC;
END-ISO-10303-21;
