ISO-10303-21;
HEADER;
FILE_DESCRIPTION (( 'STEP AP214' ),
    '1' );
FILE_NAME ('TU1065B-20.step.step',
    '2012-02-13T14:18:28',
    ( 'SysAdmin' ),
    ( 'SolidWorks' ),
    'SwSTEP 2.0',
    'SolidWorks 2012',
    '' );
FILE_SCHEMA (( 'AUTOMOTIVE_DESIGN' ));
ENDSEC;

DATA;
#1 = APPLICATION_CONTEXT ( 'automotive_design' ) ;
#2 = APPLICATION_CONTEXT ( 'automotive_design' ) ;
#3 = APPLICATION_CONTEXT ( 'automotive_design' ) ;
#4 =( REPRESENTATION_RELATIONSHIP ('NONE','NONE', #262, #263 ) REPRESENTATION_RELATIONSHIP_WITH_TRANSFORMATION ( #119 )SHAPE_REPRESENTATION_RELATIONSHIP( ) );
#5 = APPLICATION_CONTEXT ( 'automotive_design' ) ;
#6 = PRODUCT ( 'TU1065B-20.step_TU3076 Tube_1065B', 'TU1065B-20.step_TU3076 Tube_1065B', '', ( #184 ) ) ;
#7 = PRODUCT ( 'TU1065B-20.step', 'TU1065B-20.step', '', ( #131 ) ) ;
#8 = COLOUR_RGB ( '',0.0000000000000000000, 0.0000000000000000000, 0.0000000000000000000 ) ;
#9 = EDGE_CURVE ( 'NONE', #140, #145, #31, .T. ) ;
#10 = CIRCLE ( 'NONE', #293, 3.250000000000000400 ) ;
#11 = ADVANCED_FACE ( 'NONE', ( #281 ), #321, .F. ) ;
#12 = ADVANCED_FACE ( 'NONE', ( #299, #320 ), #185, .F. ) ;
#13 = COLOUR_RGB ( '',0.0000000000000000000, 0.0000000000000000000, 0.0000000000000000000 ) ;
#14 = PRODUCT_DEFINITION ( 'UNKNOWN', '', #302, #338 ) ;
#15 = CIRCLE ( 'NONE', #303, 5.000000000000000000 ) ;
#16 = EDGE_CURVE ( 'NONE', #231, #109, #126, .T. ) ;
#17 = EDGE_CURVE ( 'NONE', #109, #167, #26, .T. ) ;
#18 = CIRCLE ( 'NONE', #323, 5.000000000000000000 ) ;
#19 = EDGE_CURVE ( 'NONE', #111, #137, #38, .T. ) ;
#20 = COLOUR_RGB ( '',0.0000000000000000000, 0.5843137254901961100, 0.9058823529411764700 ) ;
#21 = COLOUR_RGB ( '',0.0000000000000000000, 0.0000000000000000000, 0.0000000000000000000 ) ;
#22 = ADVANCED_FACE ( 'NONE', ( #280, #284 ), #204, .T. ) ;
#23 = PRODUCT_DEFINITION ( 'UNKNOWN', '', #312, #339 ) ;
#24 = COLOUR_RGB ( '',0.0000000000000000000, 0.0000000000000000000, 0.0000000000000000000 ) ;
#25 = EDGE_CURVE ( 'NONE', #110, #231, #33, .T. ) ;
#26 = CIRCLE ( 'NONE', #290, 5.000000000000000000 ) ;
#27 = COLOUR_RGB ( '',0.0000000000000000000, 0.0000000000000000000, 0.0000000000000000000 ) ;
#28 = PRODUCT_RELATED_PRODUCT_CATEGORY ( 'part', '', ( #7 ) ) ;
#29 = EDGE_CURVE ( 'NONE', #137, #140, #203, .T. ) ;
#30 = PRODUCT_RELATED_PRODUCT_CATEGORY ( 'part', '', ( #6 ) ) ;
#31 = CIRCLE ( 'NONE', #276, 3.250000000000000400 ) ;
#32 = CIRCLE ( 'NONE', #334, 3.250000000000000400 ) ;
#33 = CIRCLE ( 'NONE', #294, 5.000000000000000000 ) ;
#34 = ADVANCED_FACE ( 'NONE', ( #279 ), #328, .F. ) ;
#35 = COLOUR_RGB ( '',0.0000000000000000000, 0.0000000000000000000, 0.0000000000000000000 ) ;
#36 = EDGE_CURVE ( 'NONE', #167, #109, #18, .T. ) ;
#37 = EDGE_CURVE ( 'NONE', #111, #145, #135, .T. ) ;
#38 = CIRCLE ( 'NONE', #327, 3.250000000000000400 ) ;
#39 = EDGE_CURVE ( 'NONE', #145, #140, #32, .T. ) ;
#40 = COLOUR_RGB ( '',0.0000000000000000000, 0.0000000000000000000, 0.0000000000000000000 ) ;
#41 = ADVANCED_FACE ( 'NONE', ( #335 ), #286, .T. ) ;
#42 = ADVANCED_FACE ( 'NONE', ( #333 ), #274, .T. ) ;
#43 = EDGE_CURVE ( 'NONE', #231, #110, #15, .T. ) ;
#44 = EDGE_CURVE ( 'NONE', #110, #167, #160, .T. ) ;
#45 = EDGE_CURVE ( 'NONE', #137, #111, #10, .T. ) ;
#46 =( LENGTH_UNIT ( ) NAMED_UNIT ( * ) SI_UNIT ( .MILLI., .METRE. ) );
#47 = SURFACE_STYLE_FILL_AREA ( #88 ) ;
#48 = SURFACE_STYLE_USAGE ( .BOTH. , #73 ) ;
#49 = CARTESIAN_POINT ( 'NONE',  ( 0.0000000000000000000, 6.123233995736765300E-016, -5.000000000000000000 ) ) ;
#50 =( NAMED_UNIT ( * ) SI_UNIT ( $, .STERADIAN. ) SOLID_ANGLE_UNIT ( ) );
#51 = DIRECTION ( 'NONE',  ( 1.000000000000000000, 0.0000000000000000000, 0.0000000000000000000 ) ) ;
#52 = CARTESIAN_POINT ( 'NONE',  ( 114.1421356237309700, 0.0000000000000000000, 0.0000000000000000000 ) ) ;
#53 =( NAMED_UNIT ( * ) SI_UNIT ( $, .STERADIAN. ) SOLID_ANGLE_UNIT ( ) );
#54 = CARTESIAN_POINT ( 'NONE',  ( 0.0000000000000000000, 0.0000000000000000000, 0.0000000000000000000 ) ) ;
#55 = EDGE_LOOP ( 'NONE', ( #189, #214 ) ) ;
#56 =( NAMED_UNIT ( * ) PLANE_ANGLE_UNIT ( ) SI_UNIT ( $, .RADIAN. ) );
#57 = DIRECTION ( 'NONE',  ( 0.0000000000000000000, 0.0000000000000000000, -1.000000000000000000 ) ) ;
#58 = FILL_AREA_STYLE ('',( #86 ) ) ;
#59 = DIRECTION ( 'NONE',  ( 1.000000000000000000, 0.0000000000000000000, 0.0000000000000000000 ) ) ;
#60 =( LENGTH_UNIT ( ) NAMED_UNIT ( * ) SI_UNIT ( .MILLI., .METRE. ) );
#61 =( NAMED_UNIT ( * ) PLANE_ANGLE_UNIT ( ) SI_UNIT ( $, .RADIAN. ) );
#62 = PRESENTATION_STYLE_ASSIGNMENT (( #72 ) ) ;
#63 = SURFACE_STYLE_USAGE ( .BOTH. , #122 ) ;
#64 = PRESENTATION_STYLE_ASSIGNMENT (( #149 ) ) ;
#65 = EDGE_LOOP ( 'NONE', ( #213, #209, #87, #234 ) ) ;
#66 = DIRECTION ( 'NONE',  ( 0.0000000000000000000, 0.0000000000000000000, -1.000000000000000000 ) ) ;
#67 = EDGE_LOOP ( 'NONE', ( #78, #142 ) ) ;
#68 = CARTESIAN_POINT ( 'NONE',  ( 0.0000000000000000000, 0.0000000000000000000, 0.0000000000000000000 ) ) ;
#69 = CARTESIAN_POINT ( 'NONE',  ( 0.0000000000000000000, 0.0000000000000000000, 3.250000000000000400 ) ) ;
#70 = EDGE_LOOP ( 'NONE', ( #83, #107 ) ) ;
#71 = DIRECTION ( 'NONE',  ( 1.000000000000000000, 0.0000000000000000000, 0.0000000000000000000 ) ) ;
#72 = SURFACE_STYLE_USAGE ( .BOTH. , #240 ) ;
#73 = SURFACE_SIDE_STYLE ('',( #108 ) ) ;
#74 = ORIENTED_EDGE ( 'NONE', *, *, #17, .F. ) ;
#75 =( NAMED_UNIT ( * ) PLANE_ANGLE_UNIT ( ) SI_UNIT ( $, .RADIAN. ) );
#76 = EDGE_LOOP ( 'NONE', ( #105, #188, #218, #192 ) ) ;
#77 =( LENGTH_UNIT ( ) NAMED_UNIT ( * ) SI_UNIT ( .MILLI., .METRE. ) );
#78 = ORIENTED_EDGE ( 'NONE', *, *, #39, .T. ) ;
#79 = PRESENTATION_STYLE_ASSIGNMENT (( #48 ) ) ;
#80 = CARTESIAN_POINT ( 'NONE',  ( 0.0000000000000000000, 0.0000000000000000000, 0.0000000000000000000 ) ) ;
#81 = PRESENTATION_STYLE_ASSIGNMENT (( #178 ) ) ;
#82 = APPLICATION_PROTOCOL_DEFINITION ( 'draft international standard', 'automotive_design', 1998, #3 ) ;
#83 = ORIENTED_EDGE ( 'NONE', *, *, #19, .F. ) ;
#84 =( LENGTH_UNIT ( ) NAMED_UNIT ( * ) SI_UNIT ( .MILLI., .METRE. ) );
#85 = DIRECTION ( 'NONE',  ( 0.0000000000000000000, 0.0000000000000000000, 1.000000000000000000 ) ) ;
#86 = FILL_AREA_STYLE_COLOUR ( '', #24 ) ;
#87 = ORIENTED_EDGE ( 'NONE', *, *, #37, .T. ) ;
#88 = FILL_AREA_STYLE ('',( #116 ) ) ;
#89 = PRESENTATION_STYLE_ASSIGNMENT (( #63 ) ) ;
#90 = CARTESIAN_POINT ( 'NONE',  ( 100.0000000000000000, 6.123233995736765300E-016, -5.000000000000000000 ) ) ;
#91 = SURFACE_SIDE_STYLE ('',( #166 ) ) ;
#92 = SURFACE_SIDE_STYLE ('',( #222 ) ) ;
#93 = SURFACE_SIDE_STYLE ('',( #161 ) ) ;
#94 = SURFACE_STYLE_USAGE ( .BOTH. , #93 ) ;
#95 = CARTESIAN_POINT ( 'NONE',  ( 100.0000000000000000, 0.0000000000000000000, 5.000000000000000000 ) ) ;
#96 = SURFACE_SIDE_STYLE ('',( #47 ) ) ;
#97 = DIRECTION ( 'NONE',  ( 1.000000000000000000, 0.0000000000000000000, 0.0000000000000000000 ) ) ;
#98 =( LENGTH_UNIT ( ) NAMED_UNIT ( * ) SI_UNIT ( .MILLI., .METRE. ) );
#99 = DIRECTION ( 'NONE',  ( -1.000000000000000000, -0.0000000000000000000, -0.0000000000000000000 ) ) ;
#100 =( NAMED_UNIT ( * ) SI_UNIT ( $, .STERADIAN. ) SOLID_ANGLE_UNIT ( ) );
#101 = CARTESIAN_POINT ( 'NONE',  ( 0.0000000000000000000, 3.980102097228897200E-016, -3.250000000000000400 ) ) ;
#102 = SURFACE_SIDE_STYLE ('',( #183 ) ) ;
#103 = FILL_AREA_STYLE ('',( #159 ) ) ;
#104 = SHAPE_REPRESENTATION_RELATIONSHIP ( 'NONE' , 'NONE' ,  #263, #255 ) ;
#105 = ORIENTED_EDGE ( 'NONE', *, *, #44, .F. ) ;
#106 =( NAMED_UNIT ( * ) PLANE_ANGLE_UNIT ( ) SI_UNIT ( $, .RADIAN. ) );
#107 = ORIENTED_EDGE ( 'NONE', *, *, #45, .F. ) ;
#108 = SURFACE_STYLE_FILL_AREA ( #206 ) ;
#109 = VERTEX_POINT ( 'NONE', #242 ) ;
#110 = VERTEX_POINT ( 'NONE', #90 ) ;
#111 = VERTEX_POINT ( 'NONE', #134 ) ;
#112 =( NAMED_UNIT ( * ) PLANE_ANGLE_UNIT ( ) SI_UNIT ( $, .RADIAN. ) );
#113 = DIRECTION ( 'NONE',  ( 1.000000000000000000, 0.0000000000000000000, 0.0000000000000000000 ) ) ;
#114 =( LENGTH_UNIT ( ) NAMED_UNIT ( * ) SI_UNIT ( .MILLI., .METRE. ) );
#115 =( NAMED_UNIT ( * ) SI_UNIT ( $, .STERADIAN. ) SOLID_ANGLE_UNIT ( ) );
#116 = FILL_AREA_STYLE_COLOUR ( '', #21 ) ;
#117 = EDGE_LOOP ( 'NONE', ( #241, #143, #174, #211 ) ) ;
#118 =( LENGTH_UNIT ( ) NAMED_UNIT ( * ) SI_UNIT ( .MILLI., .METRE. ) );
#119 = ITEM_DEFINED_TRANSFORMATION ( 'NONE', 'NONE', #313,  #309 ) ;
#120 = EDGE_LOOP ( 'NONE', ( #193, #215, #243, #223 ) ) ;
#121 = SHAPE_DEFINITION_REPRESENTATION ( #337, #262 ) ;
#122 = SURFACE_SIDE_STYLE ('',( #238 ) ) ;
#123 = CONTEXT_DEPENDENT_SHAPE_REPRESENTATION ( #4, #336 ) ;
#124 = DIRECTION ( 'NONE',  ( -1.000000000000000000, -0.0000000000000000000, -0.0000000000000000000 ) ) ;
#125 = FILL_AREA_STYLE_COLOUR ( '', #13 ) ;
#126 = LINE ( 'NONE', #186, #316 ) ;
#127 =( NAMED_UNIT ( * ) SI_UNIT ( $, .STERADIAN. ) SOLID_ANGLE_UNIT ( ) );
#128 = APPLICATION_PROTOCOL_DEFINITION ( 'draft international standard', 'automotive_design', 1998, #5 ) ;
#129 = DIRECTION ( 'NONE',  ( 1.000000000000000000, 0.0000000000000000000, 0.0000000000000000000 ) ) ;
#130 = CARTESIAN_POINT ( 'NONE',  ( 100.0000000000000000, 0.0000000000000000000, 0.0000000000000000000 ) ) ;
#131 = PRODUCT_CONTEXT ( 'NONE', #3, 'mechanical' ) ;
#132 = CARTESIAN_POINT ( 'NONE',  ( 0.0000000000000000000, 0.0000000000000000000, 0.0000000000000000000 ) ) ;
#133 =( NAMED_UNIT ( * ) PLANE_ANGLE_UNIT ( ) SI_UNIT ( $, .RADIAN. ) );
#134 = CARTESIAN_POINT ( 'NONE',  ( 100.0000000000000000, 0.0000000000000000000, 3.250000000000000400 ) ) ;
#135 = LINE ( 'NONE', #210, #298 ) ;
#136 = DIRECTION ( 'NONE',  ( -1.000000000000000000, -0.0000000000000000000, -0.0000000000000000000 ) ) ;
#137 = VERTEX_POINT ( 'NONE', #171 ) ;
#138 = DIRECTION ( 'NONE',  ( -1.000000000000000000, -0.0000000000000000000, -0.0000000000000000000 ) ) ;
#139 = SURFACE_STYLE_USAGE ( .BOTH. , #92 ) ;
#140 = VERTEX_POINT ( 'NONE', #101 ) ;
#141 = DIRECTION ( 'NONE',  ( 0.0000000000000000000, 0.0000000000000000000, 1.000000000000000000 ) ) ;
#142 = ORIENTED_EDGE ( 'NONE', *, *, #9, .T. ) ;
#143 = ORIENTED_EDGE ( 'NONE', *, *, #44, .T. ) ;
#144 = APPLICATION_PROTOCOL_DEFINITION ( 'draft international standard', 'automotive_design', 1998, #2 ) ;
#145 = VERTEX_POINT ( 'NONE', #69 ) ;
#146 = DIRECTION ( 'NONE',  ( -1.000000000000000000, -0.0000000000000000000, -0.0000000000000000000 ) ) ;
#147 = DIRECTION ( 'NONE',  ( 1.000000000000000000, 0.0000000000000000000, 0.0000000000000000000 ) ) ;
#148 = DIRECTION ( 'NONE',  ( 0.0000000000000000000, 0.0000000000000000000, 1.000000000000000000 ) ) ;
#149 = SURFACE_STYLE_USAGE ( .BOTH. , #102 ) ;
#150 = DIRECTION ( 'NONE',  ( 1.000000000000000000, 0.0000000000000000000, 0.0000000000000000000 ) ) ;
#151 = SHAPE_DEFINITION_REPRESENTATION ( #297, #263 ) ;
#152 = CARTESIAN_POINT ( 'NONE',  ( 0.0000000000000000000, 0.0000000000000000000, 0.0000000000000000000 ) ) ;
#153 =( NAMED_UNIT ( * ) SI_UNIT ( $, .STERADIAN. ) SOLID_ANGLE_UNIT ( ) );
#154 = DIRECTION ( 'NONE',  ( 0.0000000000000000000, 0.0000000000000000000, -1.000000000000000000 ) ) ;
#155 = DIRECTION ( 'NONE',  ( 0.0000000000000000000, 0.0000000000000000000, -1.000000000000000000 ) ) ;
#156 = FILL_AREA_STYLE_COLOUR ( '', #40 ) ;
#157 =( LENGTH_UNIT ( ) NAMED_UNIT ( * ) SI_UNIT ( .MILLI., .METRE. ) );
#158 = DIRECTION ( 'NONE',  ( -1.000000000000000000, -0.0000000000000000000, -0.0000000000000000000 ) ) ;
#159 = FILL_AREA_STYLE_COLOUR ( '', #35 ) ;
#160 = LINE ( 'NONE', #194, #296 ) ;
#161 = SURFACE_STYLE_FILL_AREA ( #237 ) ;
#162 = FILL_AREA_STYLE ('',( #227 ) ) ;
#163 = DIRECTION ( 'NONE',  ( 1.000000000000000000, 0.0000000000000000000, 0.0000000000000000000 ) ) ;
#164 = EDGE_LOOP ( 'NONE', ( #74, #208 ) ) ;
#165 = CARTESIAN_POINT ( 'NONE',  ( 100.0000000000000000, 0.0000000000000000000, 0.0000000000000000000 ) ) ;
#166 = SURFACE_STYLE_FILL_AREA ( #162 ) ;
#167 = VERTEX_POINT ( 'NONE', #49 ) ;
#168 = FILL_AREA_STYLE_COLOUR ( '', #8 ) ;
#169 =( NAMED_UNIT ( * ) SI_UNIT ( $, .STERADIAN. ) SOLID_ANGLE_UNIT ( ) );
#170 = PRESENTATION_STYLE_ASSIGNMENT (( #177 ) ) ;
#171 = CARTESIAN_POINT ( 'NONE',  ( 100.0000000000000000, 3.980102097228897200E-016, -3.250000000000000400 ) ) ;
#172 = CARTESIAN_POINT ( 'NONE',  ( 0.0000000000000000000, 0.0000000000000000000, 0.0000000000000000000 ) ) ;
#173 = DIRECTION ( 'NONE',  ( 0.0000000000000000000, 0.0000000000000000000, -1.000000000000000000 ) ) ;
#174 = ORIENTED_EDGE ( 'NONE', *, *, #36, .T. ) ;
#175 = CARTESIAN_POINT ( 'NONE',  ( 0.0000000000000000000, 0.0000000000000000000, 0.0000000000000000000 ) ) ;
#176 =( NAMED_UNIT ( * ) PLANE_ANGLE_UNIT ( ) SI_UNIT ( $, .RADIAN. ) );
#177 = SURFACE_STYLE_USAGE ( .BOTH. , #91 ) ;
#178 = SURFACE_STYLE_USAGE ( .BOTH. , #96 ) ;
#179 = DIRECTION ( 'NONE',  ( 0.0000000000000000000, 0.0000000000000000000, 1.000000000000000000 ) ) ;
#180 = APPLICATION_PROTOCOL_DEFINITION ( 'draft international standard', 'automotive_design', 1998, #1 ) ;
#181 = DIRECTION ( 'NONE',  ( 1.000000000000000000, 0.0000000000000000000, 0.0000000000000000000 ) ) ;
#182 = FILL_AREA_STYLE ('',( #156 ) ) ;
#183 = SURFACE_STYLE_FILL_AREA ( #182 ) ;
#184 = PRODUCT_CONTEXT ( 'NONE', #2, 'mechanical' ) ;
#185 = PLANE ( 'NONE',  #275 ) ;
#186 = CARTESIAN_POINT ( 'NONE',  ( 114.1421356237309700, 0.0000000000000000000, 5.000000000000000000 ) ) ;
#187 = DIRECTION ( 'NONE',  ( 0.0000000000000000000, 0.0000000000000000000, -1.000000000000000000 ) ) ;
#188 = ORIENTED_EDGE ( 'NONE', *, *, #43, .F. ) ;
#189 = ORIENTED_EDGE ( 'NONE', *, *, #43, .T. ) ;
#190 = DIRECTION ( 'NONE',  ( -1.000000000000000000, -0.0000000000000000000, -0.0000000000000000000 ) ) ;
#191 =( NAMED_UNIT ( * ) PLANE_ANGLE_UNIT ( ) SI_UNIT ( $, .RADIAN. ) );
#192 = ORIENTED_EDGE ( 'NONE', *, *, #17, .T. ) ;
#193 = ORIENTED_EDGE ( 'NONE', *, *, #19, .T. ) ;
#194 = CARTESIAN_POINT ( 'NONE',  ( 114.1421356237309700, 6.123233995736765300E-016, -5.000000000000000000 ) ) ;
#195 = CARTESIAN_POINT ( 'NONE',  ( 100.0000000000000000, 0.0000000000000000000, 0.0000000000000000000 ) ) ;
#196 = DIRECTION ( 'NONE',  ( 0.0000000000000000000, 0.0000000000000000000, -1.000000000000000000 ) ) ;
#197 = DIRECTION ( 'NONE',  ( 1.000000000000000000, 0.0000000000000000000, 0.0000000000000000000 ) ) ;
#198 = DIRECTION ( 'NONE',  ( 0.0000000000000000000, 0.0000000000000000000, -1.000000000000000000 ) ) ;
#199 = CARTESIAN_POINT ( 'NONE',  ( 114.1421356237309700, 0.0000000000000000000, 0.0000000000000000000 ) ) ;
#200 = DIRECTION ( 'NONE',  ( 1.000000000000000000, 0.0000000000000000000, 0.0000000000000000000 ) ) ;
#201 = CARTESIAN_POINT ( 'NONE',  ( 114.1421356237309700, 3.980102097228897200E-016, -3.250000000000000400 ) ) ;
#202 = CARTESIAN_POINT ( 'NONE',  ( 100.0000000000000000, 0.0000000000000000000, 0.0000000000000000000 ) ) ;
#203 = LINE ( 'NONE', #201, #331 ) ;
#204 = PLANE ( 'NONE',  #318 ) ;
#205 =( NAMED_UNIT ( * ) SI_UNIT ( $, .STERADIAN. ) SOLID_ANGLE_UNIT ( ) );
#206 = FILL_AREA_STYLE ('',( #168 ) ) ;
#207 = PRESENTATION_STYLE_ASSIGNMENT (( #94 ) ) ;
#208 = ORIENTED_EDGE ( 'NONE', *, *, #36, .F. ) ;
#209 = ORIENTED_EDGE ( 'NONE', *, *, #45, .T. ) ;
#210 = CARTESIAN_POINT ( 'NONE',  ( 114.1421356237309700, 0.0000000000000000000, 3.250000000000000400 ) ) ;
#211 = ORIENTED_EDGE ( 'NONE', *, *, #16, .F. ) ;
#212 =( LENGTH_UNIT ( ) NAMED_UNIT ( * ) SI_UNIT ( .MILLI., .METRE. ) );
#213 = ORIENTED_EDGE ( 'NONE', *, *, #29, .F. ) ;
#214 = ORIENTED_EDGE ( 'NONE', *, *, #25, .T. ) ;
#215 = ORIENTED_EDGE ( 'NONE', *, *, #29, .T. ) ;
#216 = PRESENTATION_STYLE_ASSIGNMENT (( #139 ) ) ;
#217 = FILL_AREA_STYLE_COLOUR ( '', #27 ) ;
#218 = ORIENTED_EDGE ( 'NONE', *, *, #16, .T. ) ;
#219 = FILL_AREA_STYLE ('',( #217 ) ) ;
#220 = DIRECTION ( 'NONE',  ( 1.000000000000000000, 0.0000000000000000000, 0.0000000000000000000 ) ) ;
#221 = DIRECTION ( 'NONE',  ( 0.0000000000000000000, 0.0000000000000000000, 1.000000000000000000 ) ) ;
#222 = SURFACE_STYLE_FILL_AREA ( #219 ) ;
#223 = ORIENTED_EDGE ( 'NONE', *, *, #37, .F. ) ;
#224 = DIRECTION ( 'NONE',  ( 0.0000000000000000000, 0.0000000000000000000, 1.000000000000000000 ) ) ;
#225 =( NAMED_UNIT ( * ) SI_UNIT ( $, .STERADIAN. ) SOLID_ANGLE_UNIT ( ) );
#226 = DIRECTION ( 'NONE',  ( 0.0000000000000000000, 0.0000000000000000000, 1.000000000000000000 ) ) ;
#227 = FILL_AREA_STYLE_COLOUR ( '', #20 ) ;
#228 =( NAMED_UNIT ( * ) PLANE_ANGLE_UNIT ( ) SI_UNIT ( $, .RADIAN. ) );
#229 =( NAMED_UNIT ( * ) SI_UNIT ( $, .STERADIAN. ) SOLID_ANGLE_UNIT ( ) );
#230 = CARTESIAN_POINT ( 'NONE',  ( 0.0000000000000000000, 0.0000000000000000000, 0.0000000000000000000 ) ) ;
#231 = VERTEX_POINT ( 'NONE', #95 ) ;
#232 = CARTESIAN_POINT ( 'NONE',  ( 0.0000000000000000000, 0.0000000000000000000, 0.0000000000000000000 ) ) ;
#233 = CARTESIAN_POINT ( 'NONE',  ( 114.1421356237309700, 0.0000000000000000000, 0.0000000000000000000 ) ) ;
#234 = ORIENTED_EDGE ( 'NONE', *, *, #9, .F. ) ;
#235 =( NAMED_UNIT ( * ) PLANE_ANGLE_UNIT ( ) SI_UNIT ( $, .RADIAN. ) );
#236 =( LENGTH_UNIT ( ) NAMED_UNIT ( * ) SI_UNIT ( .MILLI., .METRE. ) );
#237 = FILL_AREA_STYLE ('',( #125 ) ) ;
#238 = SURFACE_STYLE_FILL_AREA ( #103 ) ;
#239 = CARTESIAN_POINT ( 'NONE',  ( 100.0000000000000000, 0.0000000000000000000, 0.0000000000000000000 ) ) ;
#240 = SURFACE_SIDE_STYLE ('',( #245 ) ) ;
#241 = ORIENTED_EDGE ( 'NONE', *, *, #25, .F. ) ;
#242 = CARTESIAN_POINT ( 'NONE',  ( 0.0000000000000000000, 0.0000000000000000000, 5.000000000000000000 ) ) ;
#243 = ORIENTED_EDGE ( 'NONE', *, *, #39, .F. ) ;
#244 = DIRECTION ( 'NONE',  ( 0.0000000000000000000, 0.0000000000000000000, -1.000000000000000000 ) ) ;
#245 = SURFACE_STYLE_FILL_AREA ( #58 ) ;
#246 = DIRECTION ( 'NONE',  ( -1.000000000000000000, -0.0000000000000000000, -0.0000000000000000000 ) ) ;
#247 = DIRECTION ( 'NONE',  ( 0.0000000000000000000, 0.0000000000000000000, 1.000000000000000000 ) ) ;
#248 = CARTESIAN_POINT ( 'NONE',  ( 114.1421356237309700, 0.0000000000000000000, 0.0000000000000000000 ) ) ;
#249 = DIRECTION ( 'NONE',  ( 1.000000000000000000, 0.0000000000000000000, 0.0000000000000000000 ) ) ;
#250 = DIRECTION ( 'NONE',  ( 0.0000000000000000000, 0.0000000000000000000, -1.000000000000000000 ) ) ;
#251 = UNCERTAINTY_MEASURE_WITH_UNIT (LENGTH_MEASURE( 1.000000000000000100E-005 ), #77, 'distance_accuracy_value', 'NONE');
#252 = UNCERTAINTY_MEASURE_WITH_UNIT (LENGTH_MEASURE( 1.000000000000000100E-005 ), #60, 'distance_accuracy_value', 'NONE');
#253 = UNCERTAINTY_MEASURE_WITH_UNIT (LENGTH_MEASURE( 1.000000000000000100E-005 ), #84, 'distance_accuracy_value', 'NONE');
#254 = UNCERTAINTY_MEASURE_WITH_UNIT (LENGTH_MEASURE( 1.000000000000000100E-005 ), #46, 'distance_accuracy_value', 'NONE');
#255 = ADVANCED_BREP_SHAPE_REPRESENTATION ( '', ( #340, #309 ), #268 ) ;
#256 = UNCERTAINTY_MEASURE_WITH_UNIT (LENGTH_MEASURE( 1.000000000000000100E-005 ), #157, 'distance_accuracy_value', 'NONE');
#257 = UNCERTAINTY_MEASURE_WITH_UNIT (LENGTH_MEASURE( 1.000000000000000100E-005 ), #212, 'distance_accuracy_value', 'NONE');
#258 = UNCERTAINTY_MEASURE_WITH_UNIT (LENGTH_MEASURE( 1.000000000000000100E-005 ), #118, 'distance_accuracy_value', 'NONE');
#259 = UNCERTAINTY_MEASURE_WITH_UNIT (LENGTH_MEASURE( 1.000000000000000100E-005 ), #236, 'distance_accuracy_value', 'NONE');
#260 = UNCERTAINTY_MEASURE_WITH_UNIT (LENGTH_MEASURE( 1.000000000000000100E-005 ), #114, 'distance_accuracy_value', 'NONE');
#261 = UNCERTAINTY_MEASURE_WITH_UNIT (LENGTH_MEASURE( 1.000000000000000100E-005 ), #98, 'distance_accuracy_value', 'NONE');
#262 = SHAPE_REPRESENTATION ( 'TU1065B-20.step', ( #315, #313 ), #265 ) ;
#263 = SHAPE_REPRESENTATION ( 'TU1065B-20.step_TU3076 Tube_1065B', ( #309 ), #268 ) ;
#264 =( GEOMETRIC_REPRESENTATION_CONTEXT ( 3 ) GLOBAL_UNCERTAINTY_ASSIGNED_CONTEXT ( ( #259 ) ) GLOBAL_UNIT_ASSIGNED_CONTEXT ( ( #236, #176, #115 ) ) REPRESENTATION_CONTEXT ( 'NONE', 'WORKASPACE' ) );
#265 =( GEOMETRIC_REPRESENTATION_CONTEXT ( 3 ) GLOBAL_UNCERTAINTY_ASSIGNED_CONTEXT ( ( #260 ) ) GLOBAL_UNIT_ASSIGNED_CONTEXT ( ( #114, #228, #169 ) ) REPRESENTATION_CONTEXT ( 'NONE', 'WORKASPACE' ) );
#266 =( GEOMETRIC_REPRESENTATION_CONTEXT ( 3 ) GLOBAL_UNCERTAINTY_ASSIGNED_CONTEXT ( ( #258 ) ) GLOBAL_UNIT_ASSIGNED_CONTEXT ( ( #118, #235, #229 ) ) REPRESENTATION_CONTEXT ( 'NONE', 'WORKASPACE' ) );
#267 =( GEOMETRIC_REPRESENTATION_CONTEXT ( 3 ) GLOBAL_UNCERTAINTY_ASSIGNED_CONTEXT ( ( #261 ) ) GLOBAL_UNIT_ASSIGNED_CONTEXT ( ( #98, #133, #100 ) ) REPRESENTATION_CONTEXT ( 'NONE', 'WORKASPACE' ) );
#268 =( GEOMETRIC_REPRESENTATION_CONTEXT ( 3 ) GLOBAL_UNCERTAINTY_ASSIGNED_CONTEXT ( ( #256 ) ) GLOBAL_UNIT_ASSIGNED_CONTEXT ( ( #157, #112, #53 ) ) REPRESENTATION_CONTEXT ( 'NONE', 'WORKASPACE' ) );
#269 =( GEOMETRIC_REPRESENTATION_CONTEXT ( 3 ) GLOBAL_UNCERTAINTY_ASSIGNED_CONTEXT ( ( #253 ) ) GLOBAL_UNIT_ASSIGNED_CONTEXT ( ( #84, #61, #50 ) ) REPRESENTATION_CONTEXT ( 'NONE', 'WORKASPACE' ) );
#270 =( GEOMETRIC_REPRESENTATION_CONTEXT ( 3 ) GLOBAL_UNCERTAINTY_ASSIGNED_CONTEXT ( ( #254 ) ) GLOBAL_UNIT_ASSIGNED_CONTEXT ( ( #46, #106, #127 ) ) REPRESENTATION_CONTEXT ( 'NONE', 'WORKASPACE' ) );
#271 =( GEOMETRIC_REPRESENTATION_CONTEXT ( 3 ) GLOBAL_UNCERTAINTY_ASSIGNED_CONTEXT ( ( #252 ) ) GLOBAL_UNIT_ASSIGNED_CONTEXT ( ( #60, #75, #153 ) ) REPRESENTATION_CONTEXT ( 'NONE', 'WORKASPACE' ) );
#272 =( GEOMETRIC_REPRESENTATION_CONTEXT ( 3 ) GLOBAL_UNCERTAINTY_ASSIGNED_CONTEXT ( ( #251 ) ) GLOBAL_UNIT_ASSIGNED_CONTEXT ( ( #77, #56, #205 ) ) REPRESENTATION_CONTEXT ( 'NONE', 'WORKASPACE' ) );
#273 =( GEOMETRIC_REPRESENTATION_CONTEXT ( 3 ) GLOBAL_UNCERTAINTY_ASSIGNED_CONTEXT ( ( #257 ) ) GLOBAL_UNIT_ASSIGNED_CONTEXT ( ( #212, #191, #225 ) ) REPRESENTATION_CONTEXT ( 'NONE', 'WORKASPACE' ) );
#274 = CYLINDRICAL_SURFACE ( 'NONE', #307, 5.000000000000000000 ) ;
#275 = AXIS2_PLACEMENT_3D ( 'NONE', #172, #71, #66 ) ;
#276 = AXIS2_PLACEMENT_3D ( 'NONE', #80, #59, #154 ) ;
#277 = STYLED_ITEM ( 'NONE', ( #64 ), #22 ) ;
#278 = PRESENTATION_LAYER_ASSIGNMENT (  '', '', ( #329 ) ) ;
#279 = FACE_OUTER_BOUND ( 'NONE', #65, .T. ) ;
#280 = FACE_BOUND ( 'NONE', #70, .T. ) ;
#281 = FACE_OUTER_BOUND ( 'NONE', #120, .T. ) ;
#282 = MECHANICAL_DESIGN_GEOMETRIC_PRESENTATION_REPRESENTATION (  '', ( #287 ), #267 ) ;
#283 = MECHANICAL_DESIGN_GEOMETRIC_PRESENTATION_REPRESENTATION (  '', ( #329 ), #269 ) ;
#284 = FACE_OUTER_BOUND ( 'NONE', #55, .T. ) ;
#285 = PRESENTATION_LAYER_ASSIGNMENT (  '', '', ( #325 ) ) ;
#286 = CYLINDRICAL_SURFACE ( 'NONE', #330, 5.000000000000000000 ) ;
#287 = STYLED_ITEM ( 'NONE', ( #170 ), #340 ) ;
#288 = STYLED_ITEM ( 'NONE', ( #216 ), #255 ) ;
#289 = MECHANICAL_DESIGN_GEOMETRIC_PRESENTATION_REPRESENTATION (  '', ( #301 ), #273 ) ;
#290 = AXIS2_PLACEMENT_3D ( 'NONE', #232, #147, #187 ) ;
#291 = STYLED_ITEM ( 'NONE', ( #79 ), #41 ) ;
#292 = STYLED_ITEM ( 'NONE', ( #89 ), #12 ) ;
#293 = AXIS2_PLACEMENT_3D ( 'NONE', #165, #163, #244 ) ;
#294 = AXIS2_PLACEMENT_3D ( 'NONE', #195, #200, #198 ) ;
#295 = PRESENTATION_LAYER_ASSIGNMENT (  '', '', ( #288 ) ) ;
#296 = VECTOR ( 'NONE', #246, 1000.000000000000000 ) ;
#297 = PRODUCT_DEFINITION_SHAPE ( 'NONE', 'NONE',  #14 ) ;
#298 = VECTOR ( 'NONE', #146, 1000.000000000000000 ) ;
#299 = FACE_OUTER_BOUND ( 'NONE', #164, .T. ) ;
#300 = AXIS2_PLACEMENT_3D ( 'NONE', #233, #138, #224 ) ;
#301 = STYLED_ITEM ( 'NONE', ( #81 ), #11 ) ;
#302 = PRODUCT_DEFINITION_FORMATION_WITH_SPECIFIED_SOURCE ( 'ANY', '', #6, .NOT_KNOWN. ) ;
#303 = AXIS2_PLACEMENT_3D ( 'NONE', #239, #113, #250 ) ;
#304 = CLOSED_SHELL ( 'NONE', ( #11, #42, #41, #12, #34, #22 ) ) ;
#305 = PRESENTATION_LAYER_ASSIGNMENT (  '', '', ( #277 ) ) ;
#306 = PRESENTATION_LAYER_ASSIGNMENT (  '', '', ( #301 ) ) ;
#307 = AXIS2_PLACEMENT_3D ( 'NONE', #248, #190, #226 ) ;
#308 = AXIS2_PLACEMENT_3D ( 'NONE', #175, #179, #129 ) ;
#309 = AXIS2_PLACEMENT_3D ( 'NONE', #68, #221, #150 ) ;
#310 = MECHANICAL_DESIGN_GEOMETRIC_PRESENTATION_REPRESENTATION (  '', ( #277 ), #272 ) ;
#311 = PRESENTATION_LAYER_ASSIGNMENT (  '', '', ( #292 ) ) ;
#312 = PRODUCT_DEFINITION_FORMATION_WITH_SPECIFIED_SOURCE ( 'ANY', '', #7, .NOT_KNOWN. ) ;
#313 = AXIS2_PLACEMENT_3D ( 'NONE', #230, #148, #181 ) ;
#314 = MECHANICAL_DESIGN_GEOMETRIC_PRESENTATION_REPRESENTATION (  '', ( #288 ), #264 ) ;
#315 = AXIS2_PLACEMENT_3D ( 'NONE', #132, #141, #249 ) ;
#316 = VECTOR ( 'NONE', #124, 1000.000000000000000 ) ;
#317 = MECHANICAL_DESIGN_GEOMETRIC_PRESENTATION_REPRESENTATION (  '', ( #325 ), #266 ) ;
#318 = AXIS2_PLACEMENT_3D ( 'NONE', #202, #197, #196 ) ;
#319 = PRESENTATION_LAYER_ASSIGNMENT (  '', '', ( #287 ) ) ;
#320 = FACE_BOUND ( 'NONE', #67, .T. ) ;
#321 = CYLINDRICAL_SURFACE ( 'NONE', #300, 3.250000000000000400 ) ;
#322 = MECHANICAL_DESIGN_GEOMETRIC_PRESENTATION_REPRESENTATION (  '', ( #291 ), #270 ) ;
#323 = AXIS2_PLACEMENT_3D ( 'NONE', #152, #51, #57 ) ;
#324 = PRESENTATION_LAYER_ASSIGNMENT (  '', '', ( #291 ) ) ;
#325 = STYLED_ITEM ( 'NONE', ( #207 ), #42 ) ;
#326 = AXIS2_PLACEMENT_3D ( 'NONE', #199, #136, #247 ) ;
#327 = AXIS2_PLACEMENT_3D ( 'NONE', #130, #97, #155 ) ;
#328 = CYLINDRICAL_SURFACE ( 'NONE', #326, 3.250000000000000400 ) ;
#329 = STYLED_ITEM ( 'NONE', ( #62 ), #34 ) ;
#330 = AXIS2_PLACEMENT_3D ( 'NONE', #52, #99, #85 ) ;
#331 = VECTOR ( 'NONE', #158, 1000.000000000000000 ) ;
#332 = MECHANICAL_DESIGN_GEOMETRIC_PRESENTATION_REPRESENTATION (  '', ( #292 ), #271 ) ;
#333 = FACE_OUTER_BOUND ( 'NONE', #117, .T. ) ;
#334 = AXIS2_PLACEMENT_3D ( 'NONE', #54, #220, #173 ) ;
#335 = FACE_OUTER_BOUND ( 'NONE', #76, .T. ) ;
#336 = PRODUCT_DEFINITION_SHAPE ( 'NONE', 'NONE',  #341 ) ;
#337 = PRODUCT_DEFINITION_SHAPE ( 'NONE', 'NONE',  #23 ) ;
#338 = PRODUCT_DEFINITION_CONTEXT ( 'detailed design', #1, 'design' ) ;
#339 = PRODUCT_DEFINITION_CONTEXT ( 'detailed design', #5, 'design' ) ;
#340 = MANIFOLD_SOLID_BREP ( 'Tube', #304 ) ;
#341 = NEXT_ASSEMBLY_USAGE_OCCURRENCE ( 'NAUO1', ' ', ' ', #23, #14, $ ) ;
ENDSEC;
END-ISO-10303-21;
