ISO-10303-21;
HEADER;
FILE_DESCRIPTION (( 'STEP AP214' ),
    '1' );
FILE_NAME ('TU1065C-100.step.step',
    '2018-06-18T06:48:57',
    ( '' ),
    ( '' ),
    'SwSTEP 2.0',
    'SolidWorks 2018',
    '' );
FILE_SCHEMA (( 'AUTOMOTIVE_DESIGN' ));
ENDSEC;

DATA;
#1 = CARTESIAN_POINT ( 'NONE',  ( 100.0000000000000000, 0.0000000000000000000, 0.0000000000000000000 ) ) ;
#2 = FACE_BOUND ( 'NONE', #38, .T. ) ;
#3 =( LENGTH_UNIT ( ) NAMED_UNIT ( * ) SI_UNIT ( .MILLI., .METRE. ) );
#4 = SHAPE_DEFINITION_REPRESENTATION ( #332, #78 ) ;
#5 = CARTESIAN_POINT ( 'NONE',  ( 0.0000000000000000000, 0.0000000000000000000, 0.0000000000000000000 ) ) ;
#6 = PRESENTATION_LAYER_ASSIGNMENT (  '', '', ( #12 ) ) ;
#7 = PRODUCT_CONTEXT ( 'NONE', #9, 'mechanical' ) ;
#8 = FACE_BOUND ( 'NONE', #190, .T. ) ;
#9 = APPLICATION_CONTEXT ( 'automotive_design' ) ;
#10 = EDGE_LOOP ( 'NONE', ( #43, #231 ) ) ;
#11 =( NAMED_UNIT ( * ) PLANE_ANGLE_UNIT ( ) SI_UNIT ( $, .RADIAN. ) );
#12 = STYLED_ITEM ( 'NONE', ( #57 ), #120 ) ;
#13 = PRODUCT_RELATED_PRODUCT_CATEGORY ( 'part', '', ( #260 ) ) ;
#14 = STYLED_ITEM ( 'NONE', ( #203 ), #128 ) ;
#15 = AXIS2_PLACEMENT_3D ( 'NONE', #308, #336, #51 ) ;
#16 =( LENGTH_UNIT ( ) NAMED_UNIT ( * ) SI_UNIT ( .MILLI., .METRE. ) );
#17 = PRODUCT_RELATED_PRODUCT_CATEGORY ( 'part', '', ( #167 ) ) ;
#18 = DIRECTION ( 'NONE',  ( -1.000000000000000000, -0.0000000000000000000, -0.0000000000000000000 ) ) ;
#19 =( GEOMETRIC_REPRESENTATION_CONTEXT ( 3 ) GLOBAL_UNCERTAINTY_ASSIGNED_CONTEXT ( ( #276 ) ) GLOBAL_UNIT_ASSIGNED_CONTEXT ( ( #3, #52, #263 ) ) REPRESENTATION_CONTEXT ( 'NONE', 'WORKASPACE' ) );
#20 = ORIENTED_EDGE ( 'NONE', *, *, #339, .F. ) ;
#21 = CARTESIAN_POINT ( 'NONE',  ( 0.0000000000000000000, 0.0000000000000000000, 5.000000000000000000 ) ) ;
#22 = ADVANCED_FACE ( 'NONE', ( #159 ), #331, .F. ) ;
#23 = CARTESIAN_POINT ( 'NONE',  ( 0.0000000000000000000, 0.0000000000000000000, 3.250000000000000444 ) ) ;
#24 = AXIS2_PLACEMENT_3D ( 'NONE', #54, #230, #122 ) ;
#25 = EDGE_LOOP ( 'NONE', ( #220, #271, #88, #253 ) ) ;
#26 = CARTESIAN_POINT ( 'NONE',  ( 0.0000000000000000000, 0.0000000000000000000, 0.0000000000000000000 ) ) ;
#27 = DIRECTION ( 'NONE',  ( 1.000000000000000000, 0.0000000000000000000, 0.0000000000000000000 ) ) ;
#28 = PRESENTATION_STYLE_ASSIGNMENT (( #272 ) ) ;
#29 = ADVANCED_FACE ( 'NONE', ( #252, #8 ), #183, .F. ) ;
#30 = FILL_AREA_STYLE_COLOUR ( '', #179 ) ;
#31 = DIRECTION ( 'NONE',  ( 1.000000000000000000, 0.0000000000000000000, 0.0000000000000000000 ) ) ;
#32 = CYLINDRICAL_SURFACE ( 'NONE', #212, 3.250000000000000444 ) ;
#33 = EDGE_LOOP ( 'NONE', ( #110, #275 ) ) ;
#34 = PRESENTATION_LAYER_ASSIGNMENT (  '', '', ( #14 ) ) ;
#35 =( LENGTH_UNIT ( ) NAMED_UNIT ( * ) SI_UNIT ( .MILLI., .METRE. ) );
#36 = CIRCLE ( 'NONE', #96, 5.000000000000000000 ) ;
#37 = PRODUCT_CONTEXT ( 'NONE', #208, 'mechanical' ) ;
#38 = EDGE_LOOP ( 'NONE', ( #20, #213 ) ) ;
#39 = FACE_OUTER_BOUND ( 'NONE', #25, .T. ) ;
#40 = PRODUCT_DEFINITION_FORMATION_WITH_SPECIFIED_SOURCE ( 'ANY', '', #260, .NOT_KNOWN. ) ;
#41 = SURFACE_STYLE_FILL_AREA ( #209 ) ;
#42 = AXIS2_PLACEMENT_3D ( 'NONE', #285, #97, #205 ) ;
#43 = ORIENTED_EDGE ( 'NONE', *, *, #64, .F. ) ;
#44 = CARTESIAN_POINT ( 'NONE',  ( 100.0000000000000000, 0.0000000000000000000, 0.0000000000000000000 ) ) ;
#45 = EDGE_CURVE ( 'NONE', #329, #60, #184, .T. ) ;
#46 =( NAMED_UNIT ( * ) SI_UNIT ( $, .STERADIAN. ) SOLID_ANGLE_UNIT ( ) );
#47 = EDGE_LOOP ( 'NONE', ( #306, #89, #165, #73 ) ) ;
#48 = DIRECTION ( 'NONE',  ( -1.000000000000000000, -0.0000000000000000000, -0.0000000000000000000 ) ) ;
#49 = AXIS2_PLACEMENT_3D ( 'NONE', #26, #241, #187 ) ;
#50 = DIRECTION ( 'NONE',  ( 0.0000000000000000000, 0.0000000000000000000, -1.000000000000000000 ) ) ;
#51 = DIRECTION ( 'NONE',  ( 0.0000000000000000000, 0.0000000000000000000, 1.000000000000000000 ) ) ;
#52 =( NAMED_UNIT ( * ) PLANE_ANGLE_UNIT ( ) SI_UNIT ( $, .RADIAN. ) );
#53 = ORIENTED_EDGE ( 'NONE', *, *, #45, .T. ) ;
#54 = CARTESIAN_POINT ( 'NONE',  ( 100.0000000000000000, 0.0000000000000000000, 0.0000000000000000000 ) ) ;
#55 = AXIS2_PLACEMENT_3D ( 'NONE', #173, #223, #255 ) ;
#56 = CARTESIAN_POINT ( 'NONE',  ( 0.0000000000000000000, 3.980102097228897245E-16, -3.250000000000000444 ) ) ;
#57 = PRESENTATION_STYLE_ASSIGNMENT (( #258 ) ) ;
#58 = FILL_AREA_STYLE ('',( #30 ) ) ;
#59 = DIRECTION ( 'NONE',  ( 0.0000000000000000000, 0.0000000000000000000, 1.000000000000000000 ) ) ;
#60 = VERTEX_POINT ( 'NONE', #226 ) ;
#61 = FILL_AREA_STYLE ('',( #186 ) ) ;
#62 = STYLED_ITEM ( 'NONE', ( #124 ), #29 ) ;
#63 = COLOUR_RGB ( '',0.9686274509803921573, 1.000000000000000000, 0.9803921568627450567 ) ;
#64 = EDGE_CURVE ( 'NONE', #177, #304, #72, .T. ) ;
#65 = STYLED_ITEM ( 'NONE', ( #28 ), #145 ) ;
#66 =( GEOMETRIC_REPRESENTATION_CONTEXT ( 3 ) GLOBAL_UNCERTAINTY_ASSIGNED_CONTEXT ( ( #215 ) ) GLOBAL_UNIT_ASSIGNED_CONTEXT ( ( #118, #312, #337 ) ) REPRESENTATION_CONTEXT ( 'NONE', 'WORKASPACE' ) );
#67 = STYLED_ITEM ( 'NONE', ( #214 ), #303 ) ;
#68 = CARTESIAN_POINT ( 'NONE',  ( 114.1421356237309652, 0.0000000000000000000, 3.250000000000000444 ) ) ;
#69 =( LENGTH_UNIT ( ) NAMED_UNIT ( * ) SI_UNIT ( .MILLI., .METRE. ) );
#70 = FILL_AREA_STYLE ('',( #335 ) ) ;
#71 = EDGE_CURVE ( 'NONE', #148, #300, #274, .T. ) ;
#72 = CIRCLE ( 'NONE', #85, 5.000000000000000000 ) ;
#73 = ORIENTED_EDGE ( 'NONE', *, *, #87, .F. ) ;
#74 = DIRECTION ( 'NONE',  ( 1.000000000000000000, 0.0000000000000000000, 0.0000000000000000000 ) ) ;
#75 = SHAPE_REPRESENTATION ( 'TU1065C-100.step', ( #49, #180 ), #192 ) ;
#76 = CARTESIAN_POINT ( 'NONE',  ( 114.1421356237309652, 6.123233995736765296E-16, -5.000000000000000000 ) ) ;
#77 = CARTESIAN_POINT ( 'NONE',  ( 114.1421356237309652, 0.0000000000000000000, 5.000000000000000000 ) ) ;
#78 = SHAPE_REPRESENTATION ( 'TU1065C-100.step_TU3076 Tube_1065C', ( #316 ), #297 ) ;
#79 = SURFACE_SIDE_STYLE ('',( #244 ) ) ;
#80 = DIRECTION ( 'NONE',  ( -1.000000000000000000, -0.0000000000000000000, -0.0000000000000000000 ) ) ;
#81 = MECHANICAL_DESIGN_GEOMETRIC_PRESENTATION_REPRESENTATION (  '', ( #113 ), #319 ) ;
#82 = PRODUCT_DEFINITION_FORMATION_WITH_SPECIFIED_SOURCE ( 'ANY', '', #167, .NOT_KNOWN. ) ;
#83 = CARTESIAN_POINT ( 'NONE',  ( 0.0000000000000000000, 0.0000000000000000000, 0.0000000000000000000 ) ) ;
#84 = STYLED_ITEM ( 'NONE', ( #164 ), #123 ) ;
#85 = AXIS2_PLACEMENT_3D ( 'NONE', #254, #282, #50 ) ;
#86 = VECTOR ( 'NONE', #317, 1000.000000000000000 ) ;
#87 = EDGE_CURVE ( 'NONE', #60, #300, #109, .T. ) ;
#88 = ORIENTED_EDGE ( 'NONE', *, *, #221, .T. ) ;
#89 = ORIENTED_EDGE ( 'NONE', *, *, #245, .T. ) ;
#90 = PRESENTATION_LAYER_ASSIGNMENT (  '', '', ( #62 ) ) ;
#91 = DIRECTION ( 'NONE',  ( 0.0000000000000000000, 0.0000000000000000000, -1.000000000000000000 ) ) ;
#92 = PLANE ( 'NONE',  #217 ) ;
#93 = ORIENTED_EDGE ( 'NONE', *, *, #87, .T. ) ;
#94 = FILL_AREA_STYLE ('',( #195 ) ) ;
#95 = CARTESIAN_POINT ( 'NONE',  ( 100.0000000000000000, 6.123233995736765296E-16, -5.000000000000000000 ) ) ;
#96 = AXIS2_PLACEMENT_3D ( 'NONE', #200, #143, #314 ) ;
#97 = DIRECTION ( 'NONE',  ( 1.000000000000000000, 0.0000000000000000000, 0.0000000000000000000 ) ) ;
#98 = AXIS2_PLACEMENT_3D ( 'NONE', #320, #182, #146 ) ;
#99 = CARTESIAN_POINT ( 'NONE',  ( 114.1421356237309652, 3.980102097228897245E-16, -3.250000000000000444 ) ) ;
#100 =( LENGTH_UNIT ( ) NAMED_UNIT ( * ) SI_UNIT ( .MILLI., .METRE. ) );
#101 = APPLICATION_PROTOCOL_DEFINITION ( 'draft international standard', 'automotive_design', 1998, #9 ) ;
#102 = SURFACE_SIDE_STYLE ('',( #41 ) ) ;
#103 = APPLICATION_PROTOCOL_DEFINITION ( 'draft international standard', 'automotive_design', 1998, #208 ) ;
#104 = VERTEX_POINT ( 'NONE', #95 ) ;
#105 = DIRECTION ( 'NONE',  ( 0.0000000000000000000, 0.0000000000000000000, 1.000000000000000000 ) ) ;
#106 = PRODUCT_DEFINITION ( 'UNKNOWN', '', #82, #251 ) ;
#107 = UNCERTAINTY_MEASURE_WITH_UNIT (LENGTH_MEASURE( 1.000000000000000082E-05 ), #132, 'distance_accuracy_value', 'NONE');
#108 = MECHANICAL_DESIGN_GEOMETRIC_PRESENTATION_REPRESENTATION (  '', ( #62 ), #273 ) ;
#109 = LINE ( 'NONE', #68, #270 ) ;
#110 = ORIENTED_EDGE ( 'NONE', *, *, #155, .T. ) ;
#111 = PRODUCT_DEFINITION ( 'UNKNOWN', '', #40, #156 ) ;
#112 = UNCERTAINTY_MEASURE_WITH_UNIT (LENGTH_MEASURE( 1.000000000000000082E-05 ), #288, 'distance_accuracy_value', 'NONE');
#113 = STYLED_ITEM ( 'NONE', ( #324 ), #22 ) ;
#114 = DIRECTION ( 'NONE',  ( 0.0000000000000000000, 0.0000000000000000000, 1.000000000000000000 ) ) ;
#115 = SURFACE_STYLE_FILL_AREA ( #94 ) ;
#116 = SURFACE_SIDE_STYLE ('',( #239 ) ) ;
#117 = VECTOR ( 'NONE', #80, 1000.000000000000000 ) ;
#118 =( LENGTH_UNIT ( ) NAMED_UNIT ( * ) SI_UNIT ( .MILLI., .METRE. ) );
#119 = AXIS2_PLACEMENT_3D ( 'NONE', #250, #219, #191 ) ;
#120 = ADVANCED_FACE ( 'NONE', ( #279 ), #32, .F. ) ;
#121 = PRODUCT_DEFINITION_SHAPE ( 'NONE', 'NONE',  #111 ) ;
#122 = DIRECTION ( 'NONE',  ( 0.0000000000000000000, 0.0000000000000000000, -1.000000000000000000 ) ) ;
#123 = ADVANCED_FACE ( 'NONE', ( #2, #322 ), #92, .T. ) ;
#124 = PRESENTATION_STYLE_ASSIGNMENT (( #206 ) ) ;
#125 = FILL_AREA_STYLE ('',( #287 ) ) ;
#126 =( GEOMETRIC_REPRESENTATION_CONTEXT ( 3 ) GLOBAL_UNCERTAINTY_ASSIGNED_CONTEXT ( ( #166 ) ) GLOBAL_UNIT_ASSIGNED_CONTEXT ( ( #16, #139, #46 ) ) REPRESENTATION_CONTEXT ( 'NONE', 'WORKASPACE' ) );
#127 =( NAMED_UNIT ( * ) SI_UNIT ( $, .STERADIAN. ) SOLID_ANGLE_UNIT ( ) );
#128 = ADVANCED_FACE ( 'NONE', ( #283 ), #224, .T. ) ;
#129 = ORIENTED_EDGE ( 'NONE', *, *, #71, .F. ) ;
#130 = DIRECTION ( 'NONE',  ( 1.000000000000000000, 0.0000000000000000000, 0.0000000000000000000 ) ) ;
#131 = SURFACE_STYLE_FILL_AREA ( #58 ) ;
#132 =( LENGTH_UNIT ( ) NAMED_UNIT ( * ) SI_UNIT ( .MILLI., .METRE. ) );
#133 = SURFACE_STYLE_FILL_AREA ( #204 ) ;
#134 =( NAMED_UNIT ( * ) SI_UNIT ( $, .STERADIAN. ) SOLID_ANGLE_UNIT ( ) );
#135 = MECHANICAL_DESIGN_GEOMETRIC_PRESENTATION_REPRESENTATION (  '', ( #12 ), #126 ) ;
#136 = EDGE_LOOP ( 'NONE', ( #169, #185, #248, #142 ) ) ;
#137 = AXIS2_PLACEMENT_3D ( 'NONE', #1, #27, #323 ) ;
#138 =( GEOMETRIC_REPRESENTATION_CONTEXT ( 3 ) GLOBAL_UNCERTAINTY_ASSIGNED_CONTEXT ( ( #207 ) ) GLOBAL_UNIT_ASSIGNED_CONTEXT ( ( #69, #193, #176 ) ) REPRESENTATION_CONTEXT ( 'NONE', 'WORKASPACE' ) );
#139 =( NAMED_UNIT ( * ) PLANE_ANGLE_UNIT ( ) SI_UNIT ( $, .RADIAN. ) );
#140 = PRODUCT_DEFINITION_SHAPE ( 'NONE', 'NONE',  #341 ) ;
#141 = FILL_AREA_STYLE ('',( #338 ) ) ;
#142 = ORIENTED_EDGE ( 'NONE', *, *, #221, .F. ) ;
#143 = DIRECTION ( 'NONE',  ( 1.000000000000000000, 0.0000000000000000000, 0.0000000000000000000 ) ) ;
#144 =( GEOMETRIC_REPRESENTATION_CONTEXT ( 3 ) GLOBAL_UNCERTAINTY_ASSIGNED_CONTEXT ( ( #234 ) ) GLOBAL_UNIT_ASSIGNED_CONTEXT ( ( #294, #330, #151 ) ) REPRESENTATION_CONTEXT ( 'NONE', 'WORKASPACE' ) );
#145 = ADVANCED_BREP_SHAPE_REPRESENTATION ( '', ( #303, #316 ), #297 ) ;
#146 = DIRECTION ( 'NONE',  ( 0.0000000000000000000, 0.0000000000000000000, 1.000000000000000000 ) ) ;
#147 = PRESENTATION_LAYER_ASSIGNMENT (  '', '', ( #67 ) ) ;
#148 = VERTEX_POINT ( 'NONE', #56 ) ;
#149 =( LENGTH_UNIT ( ) NAMED_UNIT ( * ) SI_UNIT ( .MILLI., .METRE. ) );
#150 = SURFACE_STYLE_USAGE ( .BOTH. , #79 ) ;
#151 =( NAMED_UNIT ( * ) SI_UNIT ( $, .STERADIAN. ) SOLID_ANGLE_UNIT ( ) );
#152 = CARTESIAN_POINT ( 'NONE',  ( 0.0000000000000000000, 0.0000000000000000000, 0.0000000000000000000 ) ) ;
#153 = CLOSED_SHELL ( 'NONE', ( #120, #128, #264, #29, #22, #123 ) ) ;
#154 = SURFACE_STYLE_USAGE ( .BOTH. , #102 ) ;
#155 = EDGE_CURVE ( 'NONE', #240, #104, #36, .T. ) ;
#156 = PRODUCT_DEFINITION_CONTEXT ( 'detailed design', #210, 'design' ) ;
#157 = APPLICATION_PROTOCOL_DEFINITION ( 'draft international standard', 'automotive_design', 1998, #296 ) ;
#158 =( REPRESENTATION_RELATIONSHIP ('NONE','NONE', #75, #78 ) REPRESENTATION_RELATIONSHIP_WITH_TRANSFORMATION ( #198 )SHAPE_REPRESENTATION_RELATIONSHIP( ) );
#159 = FACE_OUTER_BOUND ( 'NONE', #315, .T. ) ;
#160 = PRESENTATION_STYLE_ASSIGNMENT (( #150 ) ) ;
#161 = AXIS2_PLACEMENT_3D ( 'NONE', #5, #325, #130 ) ;
#162 = EDGE_CURVE ( 'NONE', #104, #304, #168, .T. ) ;
#163 = COLOUR_RGB ( '',0.9686274509803921573, 1.000000000000000000, 0.9803921568627450567 ) ;
#164 = PRESENTATION_STYLE_ASSIGNMENT (( #171 ) ) ;
#165 = ORIENTED_EDGE ( 'NONE', *, *, #278, .F. ) ;
#166 = UNCERTAINTY_MEASURE_WITH_UNIT (LENGTH_MEASURE( 1.000000000000000082E-05 ), #16, 'distance_accuracy_value', 'NONE');
#167 = PRODUCT ( 'TU1065C-100.step_TU3076 Tube_1065C', 'TU1065C-100.step_TU3076 Tube_1065C', '', ( #7 ) ) ;
#168 = LINE ( 'NONE', #76, #238 ) ;
#169 = ORIENTED_EDGE ( 'NONE', *, *, #327, .F. ) ;
#170 = MECHANICAL_DESIGN_GEOMETRIC_PRESENTATION_REPRESENTATION (  '', ( #67 ), #202 ) ;
#171 = SURFACE_STYLE_USAGE ( .BOTH. , #116 ) ;
#172 = UNCERTAINTY_MEASURE_WITH_UNIT (LENGTH_MEASURE( 1.000000000000000082E-05 ), #35, 'distance_accuracy_value', 'NONE');
#173 = CARTESIAN_POINT ( 'NONE',  ( 0.0000000000000000000, 0.0000000000000000000, 0.0000000000000000000 ) ) ;
#174 = SHAPE_DEFINITION_REPRESENTATION ( #121, #75 ) ;
#175 = PRESENTATION_LAYER_ASSIGNMENT (  '', '', ( #84 ) ) ;
#176 =( NAMED_UNIT ( * ) SI_UNIT ( $, .STERADIAN. ) SOLID_ANGLE_UNIT ( ) );
#177 = VERTEX_POINT ( 'NONE', #21 ) ;
#178 = COLOUR_RGB ( '',0.9686274509803921573, 1.000000000000000000, 0.9803921568627450567 ) ;
#179 = COLOUR_RGB ( '',0.0000000000000000000, 0.5843137254901961120, 0.9058823529411764719 ) ;
#180 = AXIS2_PLACEMENT_3D ( 'NONE', #152, #105, #31 ) ;
#181 = DIRECTION ( 'NONE',  ( 1.000000000000000000, 0.0000000000000000000, 0.0000000000000000000 ) ) ;
#182 = DIRECTION ( 'NONE',  ( -1.000000000000000000, -0.0000000000000000000, -0.0000000000000000000 ) ) ;
#183 = PLANE ( 'NONE',  #119 ) ;
#184 = CIRCLE ( 'NONE', #334, 3.250000000000000444 ) ;
#185 = ORIENTED_EDGE ( 'NONE', *, *, #162, .T. ) ;
#186 = FILL_AREA_STYLE_COLOUR ( '', #232 ) ;
#187 = DIRECTION ( 'NONE',  ( 1.000000000000000000, 0.0000000000000000000, 0.0000000000000000000 ) ) ;
#188 = CIRCLE ( 'NONE', #24, 5.000000000000000000 ) ;
#189 = AXIS2_PLACEMENT_3D ( 'NONE', #295, #292, #59 ) ;
#190 = EDGE_LOOP ( 'NONE', ( #311, #242 ) ) ;
#191 = DIRECTION ( 'NONE',  ( 0.0000000000000000000, 0.0000000000000000000, -1.000000000000000000 ) ) ;
#192 =( GEOMETRIC_REPRESENTATION_CONTEXT ( 3 ) GLOBAL_UNCERTAINTY_ASSIGNED_CONTEXT ( ( #172 ) ) GLOBAL_UNIT_ASSIGNED_CONTEXT ( ( #35, #11, #290 ) ) REPRESENTATION_CONTEXT ( 'NONE', 'WORKASPACE' ) );
#193 =( NAMED_UNIT ( * ) PLANE_ANGLE_UNIT ( ) SI_UNIT ( $, .RADIAN. ) );
#194 = MECHANICAL_DESIGN_GEOMETRIC_PRESENTATION_REPRESENTATION (  '', ( #14 ), #66 ) ;
#195 = FILL_AREA_STYLE_COLOUR ( '', #63 ) ;
#196 = SURFACE_SIDE_STYLE ('',( #115 ) ) ;
#197 = DIRECTION ( 'NONE',  ( 0.0000000000000000000, 0.0000000000000000000, -1.000000000000000000 ) ) ;
#198 = ITEM_DEFINED_TRANSFORMATION ( 'NONE', 'NONE', #180,  #316 ) ;
#199 = DIRECTION ( 'NONE',  ( 0.0000000000000000000, 0.0000000000000000000, -1.000000000000000000 ) ) ;
#200 = CARTESIAN_POINT ( 'NONE',  ( 100.0000000000000000, 0.0000000000000000000, 0.0000000000000000000 ) ) ;
#201 = LINE ( 'NONE', #99, #117 ) ;
#202 =( GEOMETRIC_REPRESENTATION_CONTEXT ( 3 ) GLOBAL_UNCERTAINTY_ASSIGNED_CONTEXT ( ( #112 ) ) GLOBAL_UNIT_ASSIGNED_CONTEXT ( ( #288, #286, #127 ) ) REPRESENTATION_CONTEXT ( 'NONE', 'WORKASPACE' ) );
#203 = PRESENTATION_STYLE_ASSIGNMENT (( #281 ) ) ;
#204 = FILL_AREA_STYLE ('',( #211 ) ) ;
#205 = DIRECTION ( 'NONE',  ( 0.0000000000000000000, 0.0000000000000000000, -1.000000000000000000 ) ) ;
#206 = SURFACE_STYLE_USAGE ( .BOTH. , #321 ) ;
#207 = UNCERTAINTY_MEASURE_WITH_UNIT (LENGTH_MEASURE( 1.000000000000000082E-05 ), #69, 'distance_accuracy_value', 'NONE');
#208 = APPLICATION_CONTEXT ( 'automotive_design' ) ;
#209 = FILL_AREA_STYLE ('',( #269 ) ) ;
#210 = APPLICATION_CONTEXT ( 'automotive_design' ) ;
#211 = FILL_AREA_STYLE_COLOUR ( '', #310 ) ;
#212 = AXIS2_PLACEMENT_3D ( 'NONE', #280, #48, #114 ) ;
#213 = ORIENTED_EDGE ( 'NONE', *, *, #45, .F. ) ;
#214 = PRESENTATION_STYLE_ASSIGNMENT (( #265 ) ) ;
#215 = UNCERTAINTY_MEASURE_WITH_UNIT (LENGTH_MEASURE( 1.000000000000000082E-05 ), #118, 'distance_accuracy_value', 'NONE');
#216 =( NAMED_UNIT ( * ) PLANE_ANGLE_UNIT ( ) SI_UNIT ( $, .RADIAN. ) );
#217 = AXIS2_PLACEMENT_3D ( 'NONE', #222, #74, #197 ) ;
#218 =( NAMED_UNIT ( * ) PLANE_ANGLE_UNIT ( ) SI_UNIT ( $, .RADIAN. ) );
#219 = DIRECTION ( 'NONE',  ( 1.000000000000000000, 0.0000000000000000000, 0.0000000000000000000 ) ) ;
#220 = ORIENTED_EDGE ( 'NONE', *, *, #162, .F. ) ;
#221 = EDGE_CURVE ( 'NONE', #240, #177, #246, .T. ) ;
#222 = CARTESIAN_POINT ( 'NONE',  ( 100.0000000000000000, 0.0000000000000000000, 0.0000000000000000000 ) ) ;
#223 = DIRECTION ( 'NONE',  ( 1.000000000000000000, 0.0000000000000000000, 0.0000000000000000000 ) ) ;
#224 = CYLINDRICAL_SURFACE ( 'NONE', #15, 5.000000000000000000 ) ;
#225 = ORIENTED_EDGE ( 'NONE', *, *, #245, .F. ) ;
#226 = CARTESIAN_POINT ( 'NONE',  ( 100.0000000000000000, 0.0000000000000000000, 3.250000000000000444 ) ) ;
#227 = EDGE_CURVE ( 'NONE', #304, #177, #305, .T. ) ;
#228 = CIRCLE ( 'NONE', #42, 3.250000000000000444 ) ;
#229 = CARTESIAN_POINT ( 'NONE',  ( 0.0000000000000000000, 0.0000000000000000000, 0.0000000000000000000 ) ) ;
#230 = DIRECTION ( 'NONE',  ( 1.000000000000000000, 0.0000000000000000000, 0.0000000000000000000 ) ) ;
#231 = ORIENTED_EDGE ( 'NONE', *, *, #227, .F. ) ;
#232 = COLOUR_RGB ( '',0.9686274509803921573, 1.000000000000000000, 0.9803921568627450567 ) ;
#233 = DIRECTION ( 'NONE',  ( -1.000000000000000000, -0.0000000000000000000, -0.0000000000000000000 ) ) ;
#234 = UNCERTAINTY_MEASURE_WITH_UNIT (LENGTH_MEASURE( 1.000000000000000082E-05 ), #294, 'distance_accuracy_value', 'NONE');
#235 = SURFACE_SIDE_STYLE ('',( #131 ) ) ;
#236 =( NAMED_UNIT ( * ) SI_UNIT ( $, .STERADIAN. ) SOLID_ANGLE_UNIT ( ) );
#237 = AXIS2_PLACEMENT_3D ( 'NONE', #229, #181, #199 ) ;
#238 = VECTOR ( 'NONE', #233, 1000.000000000000000 ) ;
#239 = SURFACE_STYLE_FILL_AREA ( #141 ) ;
#240 = VERTEX_POINT ( 'NONE', #259 ) ;
#241 = DIRECTION ( 'NONE',  ( 0.0000000000000000000, 0.0000000000000000000, 1.000000000000000000 ) ) ;
#242 = ORIENTED_EDGE ( 'NONE', *, *, #71, .T. ) ;
#243 = DIRECTION ( 'NONE',  ( 1.000000000000000000, 0.0000000000000000000, 0.0000000000000000000 ) ) ;
#244 = SURFACE_STYLE_FILL_AREA ( #125 ) ;
#245 = EDGE_CURVE ( 'NONE', #329, #148, #201, .T. ) ;
#246 = LINE ( 'NONE', #77, #86 ) ;
#247 = COLOUR_RGB ( '',0.9686274509803921573, 1.000000000000000000, 0.9803921568627450567 ) ;
#248 = ORIENTED_EDGE ( 'NONE', *, *, #227, .T. ) ;
#249 = MECHANICAL_DESIGN_GEOMETRIC_PRESENTATION_REPRESENTATION (  '', ( #84 ), #138 ) ;
#250 = CARTESIAN_POINT ( 'NONE',  ( 0.0000000000000000000, 0.0000000000000000000, 0.0000000000000000000 ) ) ;
#251 = PRODUCT_DEFINITION_CONTEXT ( 'detailed design', #296, 'design' ) ;
#252 = FACE_OUTER_BOUND ( 'NONE', #10, .T. ) ;
#253 = ORIENTED_EDGE ( 'NONE', *, *, #64, .T. ) ;
#254 = CARTESIAN_POINT ( 'NONE',  ( 0.0000000000000000000, 0.0000000000000000000, 0.0000000000000000000 ) ) ;
#255 = DIRECTION ( 'NONE',  ( 0.0000000000000000000, 0.0000000000000000000, -1.000000000000000000 ) ) ;
#256 = STYLED_ITEM ( 'NONE', ( #160 ), #264 ) ;
#257 = SURFACE_SIDE_STYLE ('',( #298 ) ) ;
#258 = SURFACE_STYLE_USAGE ( .BOTH. , #196 ) ;
#259 = CARTESIAN_POINT ( 'NONE',  ( 100.0000000000000000, 0.0000000000000000000, 5.000000000000000000 ) ) ;
#260 = PRODUCT ( 'TU1065C-100.step', 'TU1065C-100.step', '', ( #37 ) ) ;
#261 = CARTESIAN_POINT ( 'NONE',  ( 0.0000000000000000000, 6.123233995736765296E-16, -5.000000000000000000 ) ) ;
#262 = CIRCLE ( 'NONE', #137, 3.250000000000000444 ) ;
#263 =( NAMED_UNIT ( * ) SI_UNIT ( $, .STERADIAN. ) SOLID_ANGLE_UNIT ( ) );
#264 = ADVANCED_FACE ( 'NONE', ( #39 ), #318, .T. ) ;
#265 = SURFACE_STYLE_USAGE ( .BOTH. , #235 ) ;
#266 =( NAMED_UNIT ( * ) PLANE_ANGLE_UNIT ( ) SI_UNIT ( $, .RADIAN. ) );
#267 = MECHANICAL_DESIGN_GEOMETRIC_PRESENTATION_REPRESENTATION (  '', ( #65 ), #144 ) ;
#268 = DIRECTION ( 'NONE',  ( 0.0000000000000000000, 0.0000000000000000000, 1.000000000000000000 ) ) ;
#269 = FILL_AREA_STYLE_COLOUR ( '', #284 ) ;
#270 = VECTOR ( 'NONE', #18, 1000.000000000000000 ) ;
#271 = ORIENTED_EDGE ( 'NONE', *, *, #155, .F. ) ;
#272 = SURFACE_STYLE_USAGE ( .BOTH. , #326 ) ;
#273 =( GEOMETRIC_REPRESENTATION_CONTEXT ( 3 ) GLOBAL_UNCERTAINTY_ASSIGNED_CONTEXT ( ( #107 ) ) GLOBAL_UNIT_ASSIGNED_CONTEXT ( ( #132, #218, #134 ) ) REPRESENTATION_CONTEXT ( 'NONE', 'WORKASPACE' ) );
#274 = CIRCLE ( 'NONE', #55, 3.250000000000000444 ) ;
#275 = ORIENTED_EDGE ( 'NONE', *, *, #327, .T. ) ;
#276 = UNCERTAINTY_MEASURE_WITH_UNIT (LENGTH_MEASURE( 1.000000000000000082E-05 ), #3, 'distance_accuracy_value', 'NONE');
#277 = PRESENTATION_LAYER_ASSIGNMENT (  '', '', ( #65 ) ) ;
#278 = EDGE_CURVE ( 'NONE', #300, #148, #228, .T. ) ;
#279 = FACE_OUTER_BOUND ( 'NONE', #47, .T. ) ;
#280 = CARTESIAN_POINT ( 'NONE',  ( 114.1421356237309652, 0.0000000000000000000, 0.0000000000000000000 ) ) ;
#281 = SURFACE_STYLE_USAGE ( .BOTH. , #257 ) ;
#282 = DIRECTION ( 'NONE',  ( 1.000000000000000000, 0.0000000000000000000, 0.0000000000000000000 ) ) ;
#283 = FACE_OUTER_BOUND ( 'NONE', #136, .T. ) ;
#284 = COLOUR_RGB ( '',0.9686274509803921573, 1.000000000000000000, 0.9803921568627450567 ) ;
#285 = CARTESIAN_POINT ( 'NONE',  ( 0.0000000000000000000, 0.0000000000000000000, 0.0000000000000000000 ) ) ;
#286 =( NAMED_UNIT ( * ) PLANE_ANGLE_UNIT ( ) SI_UNIT ( $, .RADIAN. ) );
#287 = FILL_AREA_STYLE_COLOUR ( '', #178 ) ;
#288 =( LENGTH_UNIT ( ) NAMED_UNIT ( * ) SI_UNIT ( .MILLI., .METRE. ) );
#289 = PRESENTATION_LAYER_ASSIGNMENT (  '', '', ( #256 ) ) ;
#290 =( NAMED_UNIT ( * ) SI_UNIT ( $, .STERADIAN. ) SOLID_ANGLE_UNIT ( ) );
#291 = UNCERTAINTY_MEASURE_WITH_UNIT (LENGTH_MEASURE( 1.000000000000000082E-05 ), #100, 'distance_accuracy_value', 'NONE');
#292 = DIRECTION ( 'NONE',  ( -1.000000000000000000, -0.0000000000000000000, -0.0000000000000000000 ) ) ;
#293 = CONTEXT_DEPENDENT_SHAPE_REPRESENTATION ( #158, #140 ) ;
#294 =( LENGTH_UNIT ( ) NAMED_UNIT ( * ) SI_UNIT ( .MILLI., .METRE. ) );
#295 = CARTESIAN_POINT ( 'NONE',  ( 114.1421356237309652, 0.0000000000000000000, 0.0000000000000000000 ) ) ;
#296 = APPLICATION_CONTEXT ( 'automotive_design' ) ;
#297 =( GEOMETRIC_REPRESENTATION_CONTEXT ( 3 ) GLOBAL_UNCERTAINTY_ASSIGNED_CONTEXT ( ( #340 ) ) GLOBAL_UNIT_ASSIGNED_CONTEXT ( ( #149, #216, #299 ) ) REPRESENTATION_CONTEXT ( 'NONE', 'WORKASPACE' ) );
#298 = SURFACE_STYLE_FILL_AREA ( #70 ) ;
#299 =( NAMED_UNIT ( * ) SI_UNIT ( $, .STERADIAN. ) SOLID_ANGLE_UNIT ( ) );
#300 = VERTEX_POINT ( 'NONE', #23 ) ;
#301 = PRESENTATION_LAYER_ASSIGNMENT (  '', '', ( #113 ) ) ;
#302 = SHAPE_REPRESENTATION_RELATIONSHIP ( 'NONE' , 'NONE' ,  #78, #145 ) ;
#303 = MANIFOLD_SOLID_BREP ( 'Tube', #153 ) ;
#304 = VERTEX_POINT ( 'NONE', #261 ) ;
#305 = CIRCLE ( 'NONE', #237, 5.000000000000000000 ) ;
#306 = ORIENTED_EDGE ( 'NONE', *, *, #339, .T. ) ;
#307 = DIRECTION ( 'NONE',  ( 1.000000000000000000, 0.0000000000000000000, 0.0000000000000000000 ) ) ;
#308 = CARTESIAN_POINT ( 'NONE',  ( 114.1421356237309652, 0.0000000000000000000, 0.0000000000000000000 ) ) ;
#309 = MECHANICAL_DESIGN_GEOMETRIC_PRESENTATION_REPRESENTATION (  '', ( #256 ), #19 ) ;
#310 = COLOUR_RGB ( '',0.9686274509803921573, 1.000000000000000000, 0.9803921568627450567 ) ;
#311 = ORIENTED_EDGE ( 'NONE', *, *, #278, .T. ) ;
#312 =( NAMED_UNIT ( * ) PLANE_ANGLE_UNIT ( ) SI_UNIT ( $, .RADIAN. ) );
#313 = SURFACE_STYLE_FILL_AREA ( #61 ) ;
#314 = DIRECTION ( 'NONE',  ( 0.0000000000000000000, 0.0000000000000000000, -1.000000000000000000 ) ) ;
#315 = EDGE_LOOP ( 'NONE', ( #225, #53, #93, #129 ) ) ;
#316 = AXIS2_PLACEMENT_3D ( 'NONE', #83, #268, #243 ) ;
#317 = DIRECTION ( 'NONE',  ( -1.000000000000000000, -0.0000000000000000000, -0.0000000000000000000 ) ) ;
#318 = CYLINDRICAL_SURFACE ( 'NONE', #98, 5.000000000000000000 ) ;
#319 =( GEOMETRIC_REPRESENTATION_CONTEXT ( 3 ) GLOBAL_UNCERTAINTY_ASSIGNED_CONTEXT ( ( #291 ) ) GLOBAL_UNIT_ASSIGNED_CONTEXT ( ( #100, #266, #236 ) ) REPRESENTATION_CONTEXT ( 'NONE', 'WORKASPACE' ) );
#320 = CARTESIAN_POINT ( 'NONE',  ( 114.1421356237309652, 0.0000000000000000000, 0.0000000000000000000 ) ) ;
#321 = SURFACE_SIDE_STYLE ('',( #133 ) ) ;
#322 = FACE_OUTER_BOUND ( 'NONE', #33, .T. ) ;
#323 = DIRECTION ( 'NONE',  ( 0.0000000000000000000, 0.0000000000000000000, -1.000000000000000000 ) ) ;
#324 = PRESENTATION_STYLE_ASSIGNMENT (( #154 ) ) ;
#325 = DIRECTION ( 'NONE',  ( 0.0000000000000000000, 0.0000000000000000000, 1.000000000000000000 ) ) ;
#326 = SURFACE_SIDE_STYLE ('',( #313 ) ) ;
#327 = EDGE_CURVE ( 'NONE', #104, #240, #188, .T. ) ;
#328 = APPLICATION_PROTOCOL_DEFINITION ( 'draft international standard', 'automotive_design', 1998, #210 ) ;
#329 = VERTEX_POINT ( 'NONE', #333 ) ;
#330 =( NAMED_UNIT ( * ) PLANE_ANGLE_UNIT ( ) SI_UNIT ( $, .RADIAN. ) );
#331 = CYLINDRICAL_SURFACE ( 'NONE', #189, 3.250000000000000444 ) ;
#332 = PRODUCT_DEFINITION_SHAPE ( 'NONE', 'NONE',  #106 ) ;
#333 = CARTESIAN_POINT ( 'NONE',  ( 100.0000000000000000, 3.980102097228897245E-16, -3.250000000000000444 ) ) ;
#334 = AXIS2_PLACEMENT_3D ( 'NONE', #44, #307, #91 ) ;
#335 = FILL_AREA_STYLE_COLOUR ( '', #163 ) ;
#336 = DIRECTION ( 'NONE',  ( -1.000000000000000000, -0.0000000000000000000, -0.0000000000000000000 ) ) ;
#337 =( NAMED_UNIT ( * ) SI_UNIT ( $, .STERADIAN. ) SOLID_ANGLE_UNIT ( ) );
#338 = FILL_AREA_STYLE_COLOUR ( '', #247 ) ;
#339 = EDGE_CURVE ( 'NONE', #60, #329, #262, .T. ) ;
#340 = UNCERTAINTY_MEASURE_WITH_UNIT (LENGTH_MEASURE( 1.000000000000000082E-05 ), #149, 'distance_accuracy_value', 'NONE');
#341 = NEXT_ASSEMBLY_USAGE_OCCURRENCE ( 'NAUO1', ' ', ' ', #111, #106, $ ) ;
ENDSEC;
END-ISO-10303-21;
