ISO-10303-21;
HEADER;
FILE_DESCRIPTION (( 'STEP AP214' ),
    '1' );
FILE_NAME ('TU1065C-20.step.step',
    '2013-02-20T19:12:08',
    ( 'Windows User' ),
    ( '' ),
    'SwSTEP 2.0',
    'SolidWorks 2013',
    '' );
FILE_SCHEMA (( 'AUTOMOTIVE_DESIGN' ));
ENDSEC;

DATA;
#1 =( GEOMETRIC_REPRESENTATION_CONTEXT ( 3 ) GLOBAL_UNCERTAINTY_ASSIGNED_CONTEXT ( ( #39 ) ) GLOBAL_UNIT_ASSIGNED_CONTEXT ( ( #200, #208, #197 ) ) REPRESENTATION_CONTEXT ( 'NONE', 'WORKASPACE' ) );
#2 = ORIENTED_EDGE ( 'NONE', *, *, #25, .T. ) ;
#3 = PRESENTATION_LAYER_ASSIGNMENT (  '', '', ( #292 ) ) ;
#4 = PRODUCT ( 'TU1065C-20.step', 'TU1065C-20.step', '', ( #277 ) ) ;
#5 = SHAPE_DEFINITION_REPRESENTATION ( #92, #49 ) ;
#6 =( NAMED_UNIT ( * ) PLANE_ANGLE_UNIT ( ) SI_UNIT ( $, .RADIAN. ) );
#7 = DIRECTION ( 'NONE',  ( -1.000000000000000000, -0.0000000000000000000, -0.0000000000000000000 ) ) ;
#8 = DIRECTION ( 'NONE',  ( 0.0000000000000000000, 0.0000000000000000000, -1.000000000000000000 ) ) ;
#9 = ORIENTED_EDGE ( 'NONE', *, *, #130, .T. ) ;
#10 = UNCERTAINTY_MEASURE_WITH_UNIT (LENGTH_MEASURE( 1.000000000000000100E-005 ), #301, 'distance_accuracy_value', 'NONE');
#11 = SURFACE_STYLE_FILL_AREA ( #66 ) ;
#12 = FACE_OUTER_BOUND ( 'NONE', #231, .T. ) ;
#13 = PRODUCT_DEFINITION ( 'UNKNOWN', '', #323, #33 ) ;
#14 = CARTESIAN_POINT ( 'NONE',  ( 100.0000000000000000, 0.0000000000000000000, 0.0000000000000000000 ) ) ;
#15 = DIRECTION ( 'NONE',  ( 0.0000000000000000000, 0.0000000000000000000, -1.000000000000000000 ) ) ;
#16 = CLOSED_SHELL ( 'NONE', ( #52, #77, #239, #79, #90, #167 ) ) ;
#17 = DIRECTION ( 'NONE',  ( 1.000000000000000000, 0.0000000000000000000, 0.0000000000000000000 ) ) ;
#18 = PRESENTATION_LAYER_ASSIGNMENT (  '', '', ( #125 ) ) ;
#19 = LINE ( 'NONE', #183, #305 ) ;
#20 = CARTESIAN_POINT ( 'NONE',  ( 100.0000000000000000, 3.980102097228897200E-016, -3.250000000000000400 ) ) ;
#21 = UNCERTAINTY_MEASURE_WITH_UNIT (LENGTH_MEASURE( 1.000000000000000100E-005 ), #306, 'distance_accuracy_value', 'NONE');
#22 = SURFACE_SIDE_STYLE ('',( #245 ) ) ;
#23 = DIRECTION ( 'NONE',  ( 0.0000000000000000000, 0.0000000000000000000, -1.000000000000000000 ) ) ;
#24 = EDGE_LOOP ( 'NONE', ( #9, #133 ) ) ;
#25 = EDGE_CURVE ( 'NONE', #110, #242, #36, .T. ) ;
#26 =( NAMED_UNIT ( * ) SI_UNIT ( $, .STERADIAN. ) SOLID_ANGLE_UNIT ( ) );
#27 =( NAMED_UNIT ( * ) SI_UNIT ( $, .STERADIAN. ) SOLID_ANGLE_UNIT ( ) );
#28 = AXIS2_PLACEMENT_3D ( 'NONE', #207, #136, #192 ) ;
#29 = ORIENTED_EDGE ( 'NONE', *, *, #309, .T. ) ;
#30 = DIRECTION ( 'NONE',  ( 0.0000000000000000000, 0.0000000000000000000, -1.000000000000000000 ) ) ;
#31 = DIRECTION ( 'NONE',  ( 1.000000000000000000, 0.0000000000000000000, 0.0000000000000000000 ) ) ;
#32 = ORIENTED_EDGE ( 'NONE', *, *, #25, .F. ) ;
#33 = PRODUCT_DEFINITION_CONTEXT ( 'detailed design', #265, 'design' ) ;
#34 = CARTESIAN_POINT ( 'NONE',  ( 100.0000000000000000, 0.0000000000000000000, 0.0000000000000000000 ) ) ;
#35 = CARTESIAN_POINT ( 'NONE',  ( 0.0000000000000000000, 0.0000000000000000000, 0.0000000000000000000 ) ) ;
#36 = CIRCLE ( 'NONE', #238, 5.000000000000000000 ) ;
#37 = FILL_AREA_STYLE_COLOUR ( '', #85 ) ;
#38 = PRESENTATION_LAYER_ASSIGNMENT (  '', '', ( #146 ) ) ;
#39 = UNCERTAINTY_MEASURE_WITH_UNIT (LENGTH_MEASURE( 1.000000000000000100E-005 ), #200, 'distance_accuracy_value', 'NONE');
#40 =( NAMED_UNIT ( * ) SI_UNIT ( $, .STERADIAN. ) SOLID_ANGLE_UNIT ( ) );
#41 = ORIENTED_EDGE ( 'NONE', *, *, #310, .F. ) ;
#42 = DIRECTION ( 'NONE',  ( 0.0000000000000000000, 0.0000000000000000000, 1.000000000000000000 ) ) ;
#43 = PRODUCT_DEFINITION_SHAPE ( 'NONE', 'NONE',  #13 ) ;
#44 = ORIENTED_EDGE ( 'NONE', *, *, #247, .T. ) ;
#45 = AXIS2_PLACEMENT_3D ( 'NONE', #170, #157, #15 ) ;
#46 = CARTESIAN_POINT ( 'NONE',  ( 114.1421356237309700, 0.0000000000000000000, 5.000000000000000000 ) ) ;
#47 = DIRECTION ( 'NONE',  ( 0.0000000000000000000, 0.0000000000000000000, -1.000000000000000000 ) ) ;
#48 = FILL_AREA_STYLE ('',( #55 ) ) ;
#49 = SHAPE_REPRESENTATION ( 'TU1065C-20.step', ( #89, #322 ), #249 ) ;
#50 = SURFACE_STYLE_FILL_AREA ( #211 ) ;
#51 = ITEM_DEFINED_TRANSFORMATION ( 'NONE', 'NONE', #322,  #188 ) ;
#52 = ADVANCED_FACE ( 'NONE', ( #241 ), #165, .F. ) ;
#53 = CARTESIAN_POINT ( 'NONE',  ( 0.0000000000000000000, 0.0000000000000000000, 3.250000000000000400 ) ) ;
#54 = CARTESIAN_POINT ( 'NONE',  ( 0.0000000000000000000, 0.0000000000000000000, 5.000000000000000000 ) ) ;
#55 = FILL_AREA_STYLE_COLOUR ( '', #140 ) ;
#56 = FACE_OUTER_BOUND ( 'NONE', #88, .T. ) ;
#57 =( NAMED_UNIT ( * ) PLANE_ANGLE_UNIT ( ) SI_UNIT ( $, .RADIAN. ) );
#58 = SURFACE_SIDE_STYLE ('',( #134 ) ) ;
#59 = PRODUCT_DEFINITION ( 'UNKNOWN', '', #95, #69 ) ;
#60 = VERTEX_POINT ( 'NONE', #202 ) ;
#61 = ORIENTED_EDGE ( 'NONE', *, *, #303, .T. ) ;
#62 = CARTESIAN_POINT ( 'NONE',  ( 114.1421356237309700, 0.0000000000000000000, 0.0000000000000000000 ) ) ;
#63 =( NAMED_UNIT ( * ) SI_UNIT ( $, .STERADIAN. ) SOLID_ANGLE_UNIT ( ) );
#64 = DIRECTION ( 'NONE',  ( 0.0000000000000000000, 0.0000000000000000000, 1.000000000000000000 ) ) ;
#65 = DIRECTION ( 'NONE',  ( 1.000000000000000000, 0.0000000000000000000, 0.0000000000000000000 ) ) ;
#66 = FILL_AREA_STYLE ('',( #164 ) ) ;
#67 = DIRECTION ( 'NONE',  ( -1.000000000000000000, -0.0000000000000000000, -0.0000000000000000000 ) ) ;
#68 = DIRECTION ( 'NONE',  ( -1.000000000000000000, -0.0000000000000000000, -0.0000000000000000000 ) ) ;
#69 = PRODUCT_DEFINITION_CONTEXT ( 'detailed design', #275, 'design' ) ;
#70 = SURFACE_SIDE_STYLE ('',( #111 ) ) ;
#71 =( LENGTH_UNIT ( ) NAMED_UNIT ( * ) SI_UNIT ( .MILLI., .METRE. ) );
#72 = SURFACE_STYLE_USAGE ( .BOTH. , #70 ) ;
#73 =( NAMED_UNIT ( * ) SI_UNIT ( $, .STERADIAN. ) SOLID_ANGLE_UNIT ( ) );
#74 = PRODUCT_RELATED_PRODUCT_CATEGORY ( 'part', '', ( #4 ) ) ;
#75 = LINE ( 'NONE', #46, #256 ) ;
#76 = ORIENTED_EDGE ( 'NONE', *, *, #261, .T. ) ;
#77 = ADVANCED_FACE ( 'NONE', ( #56 ), #145, .T. ) ;
#78 = ORIENTED_EDGE ( 'NONE', *, *, #130, .F. ) ;
#79 = ADVANCED_FACE ( 'NONE', ( #156, #330 ), #189, .F. ) ;
#80 = SURFACE_STYLE_USAGE ( .BOTH. , #22 ) ;
#81 = ORIENTED_EDGE ( 'NONE', *, *, #132, .T. ) ;
#82 = EDGE_LOOP ( 'NONE', ( #327, #29, #61, #315 ) ) ;
#83 = PRESENTATION_LAYER_ASSIGNMENT (  '', '', ( #159 ) ) ;
#84 = DIRECTION ( 'NONE',  ( 0.0000000000000000000, 0.0000000000000000000, -1.000000000000000000 ) ) ;
#85 = COLOUR_RGB ( '',0.9686274509803921600, 1.000000000000000000, 0.9803921568627450600 ) ;
#86 = DIRECTION ( 'NONE',  ( -1.000000000000000000, -0.0000000000000000000, -0.0000000000000000000 ) ) ;
#87 = CARTESIAN_POINT ( 'NONE',  ( 0.0000000000000000000, 0.0000000000000000000, 0.0000000000000000000 ) ) ;
#88 = EDGE_LOOP ( 'NONE', ( #148, #76, #2, #336 ) ) ;
#89 = AXIS2_PLACEMENT_3D ( 'NONE', #87, #106, #105 ) ;
#90 = ADVANCED_FACE ( 'NONE', ( #91 ), #190, .F. ) ;
#91 = FACE_OUTER_BOUND ( 'NONE', #82, .T. ) ;
#92 = PRODUCT_DEFINITION_SHAPE ( 'NONE', 'NONE',  #59 ) ;
#93 = COLOUR_RGB ( '',0.0000000000000000000, 0.5843137254901961100, 0.9058823529411764700 ) ;
#94 = FACE_OUTER_BOUND ( 'NONE', #153, .T. ) ;
#95 = PRODUCT_DEFINITION_FORMATION_WITH_SPECIFIED_SOURCE ( 'ANY', '', #4, .NOT_KNOWN. ) ;
#96 = CIRCLE ( 'NONE', #283, 5.000000000000000000 ) ;
#97 = UNCERTAINTY_MEASURE_WITH_UNIT (LENGTH_MEASURE( 1.000000000000000100E-005 ), #116, 'distance_accuracy_value', 'NONE');
#98 = AXIS2_PLACEMENT_3D ( 'NONE', #62, #67, #64 ) ;
#99 = ORIENTED_EDGE ( 'NONE', *, *, #310, .T. ) ;
#100 = UNCERTAINTY_MEASURE_WITH_UNIT (LENGTH_MEASURE( 1.000000000000000100E-005 ), #234, 'distance_accuracy_value', 'NONE');
#101 = APPLICATION_CONTEXT ( 'automotive_design' ) ;
#102 = CARTESIAN_POINT ( 'NONE',  ( 100.0000000000000000, 0.0000000000000000000, 0.0000000000000000000 ) ) ;
#103 = DIRECTION ( 'NONE',  ( 0.0000000000000000000, 0.0000000000000000000, 1.000000000000000000 ) ) ;
#104 = VERTEX_POINT ( 'NONE', #172 ) ;
#105 = DIRECTION ( 'NONE',  ( 1.000000000000000000, 0.0000000000000000000, 0.0000000000000000000 ) ) ;
#106 = DIRECTION ( 'NONE',  ( 0.0000000000000000000, 0.0000000000000000000, 1.000000000000000000 ) ) ;
#107 = EDGE_LOOP ( 'NONE', ( #127, #251 ) ) ;
#108 = CARTESIAN_POINT ( 'NONE',  ( 0.0000000000000000000, 0.0000000000000000000, 0.0000000000000000000 ) ) ;
#109 = SURFACE_STYLE_FILL_AREA ( #290 ) ;
#110 = VERTEX_POINT ( 'NONE', #178 ) ;
#111 = SURFACE_STYLE_FILL_AREA ( #48 ) ;
#112 = DIRECTION ( 'NONE',  ( 1.000000000000000000, 0.0000000000000000000, 0.0000000000000000000 ) ) ;
#113 = ORIENTED_EDGE ( 'NONE', *, *, #276, .T. ) ;
#114 =( NAMED_UNIT ( * ) SI_UNIT ( $, .STERADIAN. ) SOLID_ANGLE_UNIT ( ) );
#115 =( GEOMETRIC_REPRESENTATION_CONTEXT ( 3 ) GLOBAL_UNCERTAINTY_ASSIGNED_CONTEXT ( ( #97 ) ) GLOBAL_UNIT_ASSIGNED_CONTEXT ( ( #116, #331, #27 ) ) REPRESENTATION_CONTEXT ( 'NONE', 'WORKASPACE' ) );
#116 =( LENGTH_UNIT ( ) NAMED_UNIT ( * ) SI_UNIT ( .MILLI., .METRE. ) );
#117 = PRESENTATION_LAYER_ASSIGNMENT (  '', '', ( #318 ) ) ;
#118 = ORIENTED_EDGE ( 'NONE', *, *, #121, .T. ) ;
#119 = PRESENTATION_STYLE_ASSIGNMENT (( #230 ) ) ;
#120 = SHAPE_REPRESENTATION ( 'TU1065C-20.step_TU3076 Tube_1065C', ( #188 ), #177 ) ;
#121 = EDGE_CURVE ( 'NONE', #141, #332, #224, .T. ) ;
#122 = ORIENTED_EDGE ( 'NONE', *, *, #261, .F. ) ;
#123 = ORIENTED_EDGE ( 'NONE', *, *, #303, .F. ) ;
#124 = UNCERTAINTY_MEASURE_WITH_UNIT (LENGTH_MEASURE( 1.000000000000000100E-005 ), #71, 'distance_accuracy_value', 'NONE');
#125 = STYLED_ITEM ( 'NONE', ( #175 ), #52 ) ;
#126 =( GEOMETRIC_REPRESENTATION_CONTEXT ( 3 ) GLOBAL_UNCERTAINTY_ASSIGNED_CONTEXT ( ( #10 ) ) GLOBAL_UNIT_ASSIGNED_CONTEXT ( ( #301, #285, #73 ) ) REPRESENTATION_CONTEXT ( 'NONE', 'WORKASPACE' ) );
#127 = ORIENTED_EDGE ( 'NONE', *, *, #121, .F. ) ;
#128 = CYLINDRICAL_SURFACE ( 'NONE', #98, 5.000000000000000000 ) ;
#129 =( LENGTH_UNIT ( ) NAMED_UNIT ( * ) SI_UNIT ( .MILLI., .METRE. ) );
#130 = EDGE_CURVE ( 'NONE', #225, #60, #143, .T. ) ;
#131 = SURFACE_STYLE_FILL_AREA ( #191 ) ;
#132 = EDGE_CURVE ( 'NONE', #332, #60, #19, .T. ) ;
#133 = ORIENTED_EDGE ( 'NONE', *, *, #274, .T. ) ;
#134 = SURFACE_STYLE_FILL_AREA ( #325 ) ;
#135 = AXIS2_PLACEMENT_3D ( 'NONE', #14, #17, #30 ) ;
#136 = DIRECTION ( 'NONE',  ( -1.000000000000000000, -0.0000000000000000000, -0.0000000000000000000 ) ) ;
#137 = PRESENTATION_STYLE_ASSIGNMENT (( #142 ) ) ;
#138 = SHAPE_DEFINITION_REPRESENTATION ( #43, #120 ) ;
#139 = DIRECTION ( 'NONE',  ( 1.000000000000000000, 0.0000000000000000000, 0.0000000000000000000 ) ) ;
#140 = COLOUR_RGB ( '',0.9686274509803921600, 1.000000000000000000, 0.9803921568627450600 ) ;
#141 = VERTEX_POINT ( 'NONE', #150 ) ;
#142 = SURFACE_STYLE_USAGE ( .BOTH. , #58 ) ;
#143 = CIRCLE ( 'NONE', #288, 3.250000000000000400 ) ;
#144 = CARTESIAN_POINT ( 'NONE',  ( 0.0000000000000000000, 0.0000000000000000000, 0.0000000000000000000 ) ) ;
#145 = CYLINDRICAL_SURFACE ( 'NONE', #28, 5.000000000000000000 ) ;
#146 = STYLED_ITEM ( 'NONE', ( #206 ), #243 ) ;
#147 = UNCERTAINTY_MEASURE_WITH_UNIT (LENGTH_MEASURE( 1.000000000000000100E-005 ), #182, 'distance_accuracy_value', 'NONE');
#148 = ORIENTED_EDGE ( 'NONE', *, *, #247, .F. ) ;
#149 = MECHANICAL_DESIGN_GEOMETRIC_PRESENTATION_REPRESENTATION (  '', ( #292 ), #317 ) ;
#150 = CARTESIAN_POINT ( 'NONE',  ( 100.0000000000000000, 0.0000000000000000000, 3.250000000000000400 ) ) ;
#151 = COLOUR_RGB ( '',0.9686274509803921600, 1.000000000000000000, 0.9803921568627450600 ) ;
#152 = MECHANICAL_DESIGN_GEOMETRIC_PRESENTATION_REPRESENTATION (  '', ( #159 ), #257 ) ;
#153 = EDGE_LOOP ( 'NONE', ( #122, #41, #340, #113 ) ) ;
#154 = AXIS2_PLACEMENT_3D ( 'NONE', #212, #213, #214 ) ;
#155 = COLOUR_RGB ( '',0.9686274509803921600, 1.000000000000000000, 0.9803921568627450600 ) ;
#156 = FACE_OUTER_BOUND ( 'NONE', #270, .T. ) ;
#157 = DIRECTION ( 'NONE',  ( 1.000000000000000000, 0.0000000000000000000, 0.0000000000000000000 ) ) ;
#158 =( NAMED_UNIT ( * ) PLANE_ANGLE_UNIT ( ) SI_UNIT ( $, .RADIAN. ) );
#159 = STYLED_ITEM ( 'NONE', ( #296 ), #90 ) ;
#160 =( LENGTH_UNIT ( ) NAMED_UNIT ( * ) SI_UNIT ( .MILLI., .METRE. ) );
#161 = EDGE_LOOP ( 'NONE', ( #118, #81, #78, #123 ) ) ;
#162 = SHAPE_REPRESENTATION_RELATIONSHIP ( 'NONE' , 'NONE' ,  #120, #243 ) ;
#163 = STYLED_ITEM ( 'NONE', ( #137 ), #294 ) ;
#164 = FILL_AREA_STYLE_COLOUR ( '', #155 ) ;
#165 = CYLINDRICAL_SURFACE ( 'NONE', #286, 3.250000000000000400 ) ;
#166 = MECHANICAL_DESIGN_GEOMETRIC_PRESENTATION_REPRESENTATION (  '', ( #125 ), #1 ) ;
#167 = ADVANCED_FACE ( 'NONE', ( #299, #12 ), #227, .T. ) ;
#168 = SURFACE_SIDE_STYLE ('',( #131 ) ) ;
#169 = CARTESIAN_POINT ( 'NONE',  ( 100.0000000000000000, 0.0000000000000000000, 0.0000000000000000000 ) ) ;
#170 = CARTESIAN_POINT ( 'NONE',  ( 100.0000000000000000, 0.0000000000000000000, 0.0000000000000000000 ) ) ;
#171 = FILL_AREA_STYLE_COLOUR ( '', #93 ) ;
#172 = CARTESIAN_POINT ( 'NONE',  ( 100.0000000000000000, 0.0000000000000000000, 5.000000000000000000 ) ) ;
#173 = DIRECTION ( 'NONE',  ( -1.000000000000000000, -0.0000000000000000000, -0.0000000000000000000 ) ) ;
#174 = DIRECTION ( 'NONE',  ( 1.000000000000000000, 0.0000000000000000000, 0.0000000000000000000 ) ) ;
#175 = PRESENTATION_STYLE_ASSIGNMENT (( #269 ) ) ;
#176 = STYLED_ITEM ( 'NONE', ( #312 ), #77 ) ;
#177 =( GEOMETRIC_REPRESENTATION_CONTEXT ( 3 ) GLOBAL_UNCERTAINTY_ASSIGNED_CONTEXT ( ( #204 ) ) GLOBAL_UNIT_ASSIGNED_CONTEXT ( ( #129, #223, #40 ) ) REPRESENTATION_CONTEXT ( 'NONE', 'WORKASPACE' ) );
#178 = CARTESIAN_POINT ( 'NONE',  ( 0.0000000000000000000, 6.123233995736765300E-016, -5.000000000000000000 ) ) ;
#179 = DIRECTION ( 'NONE',  ( -1.000000000000000000, -0.0000000000000000000, -0.0000000000000000000 ) ) ;
#180 = SURFACE_STYLE_USAGE ( .BOTH. , #168 ) ;
#181 =( NAMED_UNIT ( * ) PLANE_ANGLE_UNIT ( ) SI_UNIT ( $, .RADIAN. ) );
#182 =( LENGTH_UNIT ( ) NAMED_UNIT ( * ) SI_UNIT ( .MILLI., .METRE. ) );
#183 = CARTESIAN_POINT ( 'NONE',  ( 114.1421356237309700, 3.980102097228897200E-016, -3.250000000000000400 ) ) ;
#184 =( NAMED_UNIT ( * ) SI_UNIT ( $, .STERADIAN. ) SOLID_ANGLE_UNIT ( ) );
#185 = DIRECTION ( 'NONE',  ( 0.0000000000000000000, 0.0000000000000000000, 1.000000000000000000 ) ) ;
#186 = EDGE_CURVE ( 'NONE', #104, #242, #75, .T. ) ;
#187 = SURFACE_STYLE_FILL_AREA ( #210 ) ;
#188 = AXIS2_PLACEMENT_3D ( 'NONE', #35, #42, #31 ) ;
#189 = PLANE ( 'NONE',  #154 ) ;
#190 = CYLINDRICAL_SURFACE ( 'NONE', #236, 3.250000000000000400 ) ;
#191 = FILL_AREA_STYLE ('',( #216 ) ) ;
#192 = DIRECTION ( 'NONE',  ( 0.0000000000000000000, 0.0000000000000000000, 1.000000000000000000 ) ) ;
#193 =( NAMED_UNIT ( * ) SI_UNIT ( $, .STERADIAN. ) SOLID_ANGLE_UNIT ( ) );
#194 =( LENGTH_UNIT ( ) NAMED_UNIT ( * ) SI_UNIT ( .MILLI., .METRE. ) );
#195 =( NAMED_UNIT ( * ) PLANE_ANGLE_UNIT ( ) SI_UNIT ( $, .RADIAN. ) );
#196 = SURFACE_STYLE_USAGE ( .BOTH. , #199 ) ;
#197 =( NAMED_UNIT ( * ) SI_UNIT ( $, .STERADIAN. ) SOLID_ANGLE_UNIT ( ) );
#198 = CARTESIAN_POINT ( 'NONE',  ( 0.0000000000000000000, 0.0000000000000000000, 0.0000000000000000000 ) ) ;
#199 = SURFACE_SIDE_STYLE ('',( #50 ) ) ;
#200 =( LENGTH_UNIT ( ) NAMED_UNIT ( * ) SI_UNIT ( .MILLI., .METRE. ) );
#201 = DIRECTION ( 'NONE',  ( 0.0000000000000000000, 0.0000000000000000000, 1.000000000000000000 ) ) ;
#202 = CARTESIAN_POINT ( 'NONE',  ( 0.0000000000000000000, 3.980102097228897200E-016, -3.250000000000000400 ) ) ;
#203 = FILL_AREA_STYLE_COLOUR ( '', #151 ) ;
#204 = UNCERTAINTY_MEASURE_WITH_UNIT (LENGTH_MEASURE( 1.000000000000000100E-005 ), #129, 'distance_accuracy_value', 'NONE');
#205 = FILL_AREA_STYLE_COLOUR ( '', #229 ) ;
#206 = PRESENTATION_STYLE_ASSIGNMENT (( #80 ) ) ;
#207 = CARTESIAN_POINT ( 'NONE',  ( 114.1421356237309700, 0.0000000000000000000, 0.0000000000000000000 ) ) ;
#208 =( NAMED_UNIT ( * ) PLANE_ANGLE_UNIT ( ) SI_UNIT ( $, .RADIAN. ) );
#209 = PRESENTATION_STYLE_ASSIGNMENT (( #295 ) ) ;
#210 = FILL_AREA_STYLE ('',( #218 ) ) ;
#211 = FILL_AREA_STYLE ('',( #205 ) ) ;
#212 = CARTESIAN_POINT ( 'NONE',  ( 0.0000000000000000000, 0.0000000000000000000, 0.0000000000000000000 ) ) ;
#213 = DIRECTION ( 'NONE',  ( 1.000000000000000000, 0.0000000000000000000, 0.0000000000000000000 ) ) ;
#214 = DIRECTION ( 'NONE',  ( 0.0000000000000000000, 0.0000000000000000000, -1.000000000000000000 ) ) ;
#215 = CARTESIAN_POINT ( 'NONE',  ( 114.1421356237309700, 0.0000000000000000000, 0.0000000000000000000 ) ) ;
#216 = FILL_AREA_STYLE_COLOUR ( '', #307 ) ;
#217 =( NAMED_UNIT ( * ) SI_UNIT ( $, .STERADIAN. ) SOLID_ANGLE_UNIT ( ) );
#218 = FILL_AREA_STYLE_COLOUR ( '', #335 ) ;
#219 =( REPRESENTATION_RELATIONSHIP ('NONE','NONE', #49, #120 ) REPRESENTATION_RELATIONSHIP_WITH_TRANSFORMATION ( #51 )SHAPE_REPRESENTATION_RELATIONSHIP( ) );
#220 = CIRCLE ( 'NONE', #135, 3.250000000000000400 ) ;
#221 = PRODUCT_RELATED_PRODUCT_CATEGORY ( 'part', '', ( #339 ) ) ;
#222 = PRESENTATION_LAYER_ASSIGNMENT (  '', '', ( #163 ) ) ;
#223 =( NAMED_UNIT ( * ) PLANE_ANGLE_UNIT ( ) SI_UNIT ( $, .RADIAN. ) );
#224 = CIRCLE ( 'NONE', #284, 3.250000000000000400 ) ;
#225 = VERTEX_POINT ( 'NONE', #53 ) ;
#226 = FILL_AREA_STYLE ('',( #37 ) ) ;
#227 = PLANE ( 'NONE',  #258 ) ;
#228 = VECTOR ( 'NONE', #86, 1000.000000000000000 ) ;
#229 = COLOUR_RGB ( '',0.9686274509803921600, 1.000000000000000000, 0.9803921568627450600 ) ;
#230 = SURFACE_STYLE_USAGE ( .BOTH. , #232 ) ;
#231 = EDGE_LOOP ( 'NONE', ( #99, #44 ) ) ;
#232 = SURFACE_SIDE_STYLE ('',( #187 ) ) ;
#233 =( NAMED_UNIT ( * ) PLANE_ANGLE_UNIT ( ) SI_UNIT ( $, .RADIAN. ) );
#234 =( LENGTH_UNIT ( ) NAMED_UNIT ( * ) SI_UNIT ( .MILLI., .METRE. ) );
#235 = LINE ( 'NONE', #337, #228 ) ;
#236 = AXIS2_PLACEMENT_3D ( 'NONE', #215, #179, #185 ) ;
#237 = CIRCLE ( 'NONE', #45, 5.000000000000000000 ) ;
#238 = AXIS2_PLACEMENT_3D ( 'NONE', #198, #287, #8 ) ;
#239 = ADVANCED_FACE ( 'NONE', ( #94 ), #128, .T. ) ;
#240 = DIRECTION ( 'NONE',  ( 1.000000000000000000, 0.0000000000000000000, 0.0000000000000000000 ) ) ;
#241 = FACE_OUTER_BOUND ( 'NONE', #161, .T. ) ;
#242 = VERTEX_POINT ( 'NONE', #54 ) ;
#243 = ADVANCED_BREP_SHAPE_REPRESENTATION ( '', ( #294, #188 ), #177 ) ;
#244 = VERTEX_POINT ( 'NONE', #308 ) ;
#245 = SURFACE_STYLE_FILL_AREA ( #226 ) ;
#246 = APPLICATION_PROTOCOL_DEFINITION ( 'draft international standard', 'automotive_design', 1998, #265 ) ;
#247 = EDGE_CURVE ( 'NONE', #244, #104, #329, .T. ) ;
#248 = DIRECTION ( 'NONE',  ( 0.0000000000000000000, 0.0000000000000000000, -1.000000000000000000 ) ) ;
#249 =( GEOMETRIC_REPRESENTATION_CONTEXT ( 3 ) GLOBAL_UNCERTAINTY_ASSIGNED_CONTEXT ( ( #260 ) ) GLOBAL_UNIT_ASSIGNED_CONTEXT ( ( #160, #158, #114 ) ) REPRESENTATION_CONTEXT ( 'NONE', 'WORKASPACE' ) );
#250 =( GEOMETRIC_REPRESENTATION_CONTEXT ( 3 ) GLOBAL_UNCERTAINTY_ASSIGNED_CONTEXT ( ( #100 ) ) GLOBAL_UNIT_ASSIGNED_CONTEXT ( ( #234, #233, #26 ) ) REPRESENTATION_CONTEXT ( 'NONE', 'WORKASPACE' ) );
#251 = ORIENTED_EDGE ( 'NONE', *, *, #309, .F. ) ;
#252 = DIRECTION ( 'NONE',  ( 1.000000000000000000, 0.0000000000000000000, 0.0000000000000000000 ) ) ;
#253 = MECHANICAL_DESIGN_GEOMETRIC_PRESENTATION_REPRESENTATION (  '', ( #289 ), #298 ) ;
#254 = AXIS2_PLACEMENT_3D ( 'NONE', #34, #334, #328 ) ;
#255 = PRODUCT_DEFINITION_SHAPE ( 'NONE', 'NONE',  #341 ) ;
#256 = VECTOR ( 'NONE', #68, 1000.000000000000000 ) ;
#257 =( GEOMETRIC_REPRESENTATION_CONTEXT ( 3 ) GLOBAL_UNCERTAINTY_ASSIGNED_CONTEXT ( ( #147 ) ) GLOBAL_UNIT_ASSIGNED_CONTEXT ( ( #182, #181, #217 ) ) REPRESENTATION_CONTEXT ( 'NONE', 'WORKASPACE' ) );
#258 = AXIS2_PLACEMENT_3D ( 'NONE', #102, #262, #47 ) ;
#259 = PRESENTATION_STYLE_ASSIGNMENT (( #72 ) ) ;
#260 = UNCERTAINTY_MEASURE_WITH_UNIT (LENGTH_MEASURE( 1.000000000000000100E-005 ), #160, 'distance_accuracy_value', 'NONE');
#261 = EDGE_CURVE ( 'NONE', #244, #110, #321, .T. ) ;
#262 = DIRECTION ( 'NONE',  ( 1.000000000000000000, 0.0000000000000000000, 0.0000000000000000000 ) ) ;
#263 = DIRECTION ( 'NONE',  ( 0.0000000000000000000, 0.0000000000000000000, -1.000000000000000000 ) ) ;
#264 = CONTEXT_DEPENDENT_SHAPE_REPRESENTATION ( #219, #255 ) ;
#265 = APPLICATION_CONTEXT ( 'automotive_design' ) ;
#266 = UNCERTAINTY_MEASURE_WITH_UNIT (LENGTH_MEASURE( 1.000000000000000100E-005 ), #194, 'distance_accuracy_value', 'NONE');
#267 = MECHANICAL_DESIGN_GEOMETRIC_PRESENTATION_REPRESENTATION (  '', ( #318 ), #250 ) ;
#268 = MECHANICAL_DESIGN_GEOMETRIC_PRESENTATION_REPRESENTATION (  '', ( #146 ), #126 ) ;
#269 = SURFACE_STYLE_USAGE ( .BOTH. , #271 ) ;
#270 = EDGE_LOOP ( 'NONE', ( #291, #32 ) ) ;
#271 = SURFACE_SIDE_STYLE ('',( #109 ) ) ;
#272 = APPLICATION_PROTOCOL_DEFINITION ( 'draft international standard', 'automotive_design', 1998, #275 ) ;
#273 = APPLICATION_PROTOCOL_DEFINITION ( 'draft international standard', 'automotive_design', 1998, #101 ) ;
#274 = EDGE_CURVE ( 'NONE', #60, #225, #319, .T. ) ;
#275 = APPLICATION_CONTEXT ( 'automotive_design' ) ;
#276 = EDGE_CURVE ( 'NONE', #242, #110, #96, .T. ) ;
#277 = PRODUCT_CONTEXT ( 'NONE', #280, 'mechanical' ) ;
#278 = PRODUCT_CONTEXT ( 'NONE', #101, 'mechanical' ) ;
#279 = PRESENTATION_LAYER_ASSIGNMENT (  '', '', ( #289 ) ) ;
#280 = APPLICATION_CONTEXT ( 'automotive_design' ) ;
#281 = MECHANICAL_DESIGN_GEOMETRIC_PRESENTATION_REPRESENTATION (  '', ( #163 ), #115 ) ;
#282 = APPLICATION_PROTOCOL_DEFINITION ( 'draft international standard', 'automotive_design', 1998, #280 ) ;
#283 = AXIS2_PLACEMENT_3D ( 'NONE', #144, #65, #84 ) ;
#284 = AXIS2_PLACEMENT_3D ( 'NONE', #169, #174, #263 ) ;
#285 =( NAMED_UNIT ( * ) PLANE_ANGLE_UNIT ( ) SI_UNIT ( $, .RADIAN. ) );
#286 = AXIS2_PLACEMENT_3D ( 'NONE', #293, #7, #201 ) ;
#287 = DIRECTION ( 'NONE',  ( 1.000000000000000000, 0.0000000000000000000, 0.0000000000000000000 ) ) ;
#288 = AXIS2_PLACEMENT_3D ( 'NONE', #108, #112, #23 ) ;
#289 = STYLED_ITEM ( 'NONE', ( #259 ), #239 ) ;
#290 = FILL_AREA_STYLE ('',( #203 ) ) ;
#291 = ORIENTED_EDGE ( 'NONE', *, *, #276, .F. ) ;
#292 = STYLED_ITEM ( 'NONE', ( #209 ), #167 ) ;
#293 = CARTESIAN_POINT ( 'NONE',  ( 114.1421356237309700, 0.0000000000000000000, 0.0000000000000000000 ) ) ;
#294 = MANIFOLD_SOLID_BREP ( 'Tube', #16 ) ;
#295 = SURFACE_STYLE_USAGE ( .BOTH. , #302 ) ;
#296 = PRESENTATION_STYLE_ASSIGNMENT (( #180 ) ) ;
#297 = AXIS2_PLACEMENT_3D ( 'NONE', #333, #240, #248 ) ;
#298 =( GEOMETRIC_REPRESENTATION_CONTEXT ( 3 ) GLOBAL_UNCERTAINTY_ASSIGNED_CONTEXT ( ( #124 ) ) GLOBAL_UNIT_ASSIGNED_CONTEXT ( ( #71, #57, #63 ) ) REPRESENTATION_CONTEXT ( 'NONE', 'WORKASPACE' ) );
#299 = FACE_BOUND ( 'NONE', #107, .T. ) ;
#300 = MECHANICAL_DESIGN_GEOMETRIC_PRESENTATION_REPRESENTATION (  '', ( #176 ), #314 ) ;
#301 =( LENGTH_UNIT ( ) NAMED_UNIT ( * ) SI_UNIT ( .MILLI., .METRE. ) );
#302 = SURFACE_SIDE_STYLE ('',( #11 ) ) ;
#303 = EDGE_CURVE ( 'NONE', #141, #225, #235, .T. ) ;
#304 = DIRECTION ( 'NONE',  ( -1.000000000000000000, -0.0000000000000000000, -0.0000000000000000000 ) ) ;
#305 = VECTOR ( 'NONE', #173, 1000.000000000000000 ) ;
#306 =( LENGTH_UNIT ( ) NAMED_UNIT ( * ) SI_UNIT ( .MILLI., .METRE. ) );
#307 = COLOUR_RGB ( '',0.9686274509803921600, 1.000000000000000000, 0.9803921568627450600 ) ;
#308 = CARTESIAN_POINT ( 'NONE',  ( 100.0000000000000000, 6.123233995736765300E-016, -5.000000000000000000 ) ) ;
#309 = EDGE_CURVE ( 'NONE', #332, #141, #220, .T. ) ;
#310 = EDGE_CURVE ( 'NONE', #104, #244, #237, .T. ) ;
#311 = AXIS2_PLACEMENT_3D ( 'NONE', #338, #316, #252 ) ;
#312 = PRESENTATION_STYLE_ASSIGNMENT (( #196 ) ) ;
#313 = PRESENTATION_LAYER_ASSIGNMENT (  '', '', ( #176 ) ) ;
#314 =( GEOMETRIC_REPRESENTATION_CONTEXT ( 3 ) GLOBAL_UNCERTAINTY_ASSIGNED_CONTEXT ( ( #266 ) ) GLOBAL_UNIT_ASSIGNED_CONTEXT ( ( #194, #195, #193 ) ) REPRESENTATION_CONTEXT ( 'NONE', 'WORKASPACE' ) );
#315 = ORIENTED_EDGE ( 'NONE', *, *, #274, .F. ) ;
#316 = DIRECTION ( 'NONE',  ( 0.0000000000000000000, 0.0000000000000000000, 1.000000000000000000 ) ) ;
#317 =( GEOMETRIC_REPRESENTATION_CONTEXT ( 3 ) GLOBAL_UNCERTAINTY_ASSIGNED_CONTEXT ( ( #21 ) ) GLOBAL_UNIT_ASSIGNED_CONTEXT ( ( #306, #6, #184 ) ) REPRESENTATION_CONTEXT ( 'NONE', 'WORKASPACE' ) );
#318 = STYLED_ITEM ( 'NONE', ( #119 ), #79 ) ;
#319 = CIRCLE ( 'NONE', #297, 3.250000000000000400 ) ;
#320 = CARTESIAN_POINT ( 'NONE',  ( 114.1421356237309700, 6.123233995736765300E-016, -5.000000000000000000 ) ) ;
#321 = LINE ( 'NONE', #320, #324 ) ;
#322 = AXIS2_PLACEMENT_3D ( 'NONE', #326, #103, #139 ) ;
#323 = PRODUCT_DEFINITION_FORMATION_WITH_SPECIFIED_SOURCE ( 'ANY', '', #339, .NOT_KNOWN. ) ;
#324 = VECTOR ( 'NONE', #304, 1000.000000000000000 ) ;
#325 = FILL_AREA_STYLE ('',( #171 ) ) ;
#326 = CARTESIAN_POINT ( 'NONE',  ( 0.0000000000000000000, 0.0000000000000000000, 0.0000000000000000000 ) ) ;
#327 = ORIENTED_EDGE ( 'NONE', *, *, #132, .F. ) ;
#328 = DIRECTION ( 'NONE',  ( 0.0000000000000000000, 0.0000000000000000000, -1.000000000000000000 ) ) ;
#329 = CIRCLE ( 'NONE', #254, 5.000000000000000000 ) ;
#330 = FACE_BOUND ( 'NONE', #24, .T. ) ;
#331 =( NAMED_UNIT ( * ) PLANE_ANGLE_UNIT ( ) SI_UNIT ( $, .RADIAN. ) );
#332 = VERTEX_POINT ( 'NONE', #20 ) ;
#333 = CARTESIAN_POINT ( 'NONE',  ( 0.0000000000000000000, 0.0000000000000000000, 0.0000000000000000000 ) ) ;
#334 = DIRECTION ( 'NONE',  ( 1.000000000000000000, 0.0000000000000000000, 0.0000000000000000000 ) ) ;
#335 = COLOUR_RGB ( '',0.9686274509803921600, 1.000000000000000000, 0.9803921568627450600 ) ;
#336 = ORIENTED_EDGE ( 'NONE', *, *, #186, .F. ) ;
#337 = CARTESIAN_POINT ( 'NONE',  ( 114.1421356237309700, 0.0000000000000000000, 3.250000000000000400 ) ) ;
#338 = CARTESIAN_POINT ( 'NONE',  ( 0.0000000000000000000, 0.0000000000000000000, 0.0000000000000000000 ) ) ;
#339 = PRODUCT ( 'TU1065C-20.step_TU3076 Tube_1065C', 'TU1065C-20.step_TU3076 Tube_1065C', '', ( #278 ) ) ;
#340 = ORIENTED_EDGE ( 'NONE', *, *, #186, .T. ) ;
#341 = NEXT_ASSEMBLY_USAGE_OCCURRENCE ( 'NAUO1', ' ', ' ', #59, #13, $ ) ;
ENDSEC;
END-ISO-10303-21;
