ISO-10303-21;
HEADER;
FILE_DESCRIPTION (( 'STEP AP214' ),
    '1' );
FILE_NAME ('TU1065R-20.step.step',
    '2015-06-25T14:05:29',
    ( 'Windows User' ),
    ( '' ),
    'SwSTEP 2.0',
    'SolidWorks 2015',
    '' );
FILE_SCHEMA (( 'AUTOMOTIVE_DESIGN' ));
ENDSEC;

DATA;
#1 = DIRECTION ( 'NONE',  ( 0.0000000000000000000, 0.0000000000000000000, 1.000000000000000000 ) ) ;
#2 = APPLICATION_CONTEXT ( 'automotive_design' ) ;
#3 = FACE_BOUND ( 'NONE', #35, .T. ) ;
#4 = SHAPE_REPRESENTATION ( 'TU1065R-20.step_TU3076 Tube_1065R', ( #321 ), #340 ) ;
#5 = FILL_AREA_STYLE_COLOUR ( '', #22 ) ;
#6 = AXIS2_PLACEMENT_3D ( 'NONE', #133, #216, #1 ) ;
#7 = DIRECTION ( 'NONE',  ( 0.0000000000000000000, 0.0000000000000000000, 1.000000000000000000 ) ) ;
#8 = ORIENTED_EDGE ( 'NONE', *, *, #62, .T. ) ;
#9 = DIRECTION ( 'NONE',  ( 1.000000000000000000, 0.0000000000000000000, 0.0000000000000000000 ) ) ;
#10 = EDGE_LOOP ( 'NONE', ( #337, #261, #278, #252 ) ) ;
#11 = SURFACE_STYLE_USAGE ( .BOTH. , #88 ) ;
#12 =( LENGTH_UNIT ( ) NAMED_UNIT ( * ) SI_UNIT ( .MILLI., .METRE. ) );
#13 = ADVANCED_FACE ( 'NONE', ( #136 ), #173, .F. ) ;
#14 = CARTESIAN_POINT ( 'NONE',  ( 114.1421356237309700, 6.123233995736765300E-016, -5.000000000000000000 ) ) ;
#15 = AXIS2_PLACEMENT_3D ( 'NONE', #237, #282, #241 ) ;
#16 =( NAMED_UNIT ( * ) PLANE_ANGLE_UNIT ( ) SI_UNIT ( $, .RADIAN. ) );
#17 =( NAMED_UNIT ( * ) PLANE_ANGLE_UNIT ( ) SI_UNIT ( $, .RADIAN. ) );
#18 = CARTESIAN_POINT ( 'NONE',  ( 100.0000000000000000, 0.0000000000000000000, 5.000000000000000000 ) ) ;
#19 = PRESENTATION_STYLE_ASSIGNMENT (( #183 ) ) ;
#20 =( LENGTH_UNIT ( ) NAMED_UNIT ( * ) SI_UNIT ( .MILLI., .METRE. ) );
#21 = ORIENTED_EDGE ( 'NONE', *, *, #101, .T. ) ;
#22 = COLOUR_RGB ( '',1.000000000000000000, 0.1254901960784313700, 0.1607843137254901800 ) ;
#23 = SURFACE_SIDE_STYLE ('',( #166 ) ) ;
#24 = FILL_AREA_STYLE ('',( #5 ) ) ;
#25 = FILL_AREA_STYLE_COLOUR ( '', #221 ) ;
#26 = SURFACE_STYLE_FILL_AREA ( #197 ) ;
#27 = EDGE_LOOP ( 'NONE', ( #258, #8 ) ) ;
#28 = UNCERTAINTY_MEASURE_WITH_UNIT (LENGTH_MEASURE( 1.000000000000000100E-005 ), #12, 'distance_accuracy_value', 'NONE');
#29 = EDGE_LOOP ( 'NONE', ( #253, #58, #47, #119 ) ) ;
#30 = DIRECTION ( 'NONE',  ( 1.000000000000000000, 0.0000000000000000000, 0.0000000000000000000 ) ) ;
#31 = CARTESIAN_POINT ( 'NONE',  ( 114.1421356237309700, 0.0000000000000000000, 3.250000000000000400 ) ) ;
#32 = DIRECTION ( 'NONE',  ( 0.0000000000000000000, 0.0000000000000000000, -1.000000000000000000 ) ) ;
#33 = FILL_AREA_STYLE ('',( #163 ) ) ;
#34 = ORIENTED_EDGE ( 'NONE', *, *, #287, .F. ) ;
#35 = EDGE_LOOP ( 'NONE', ( #242, #231 ) ) ;
#36 = CARTESIAN_POINT ( 'NONE',  ( 114.1421356237309700, 0.0000000000000000000, 0.0000000000000000000 ) ) ;
#37 = FILL_AREA_STYLE_COLOUR ( '', #193 ) ;
#38 = SURFACE_STYLE_FILL_AREA ( #251 ) ;
#39 = PRESENTATION_LAYER_ASSIGNMENT (  '', '', ( #95 ) ) ;
#40 = DIRECTION ( 'NONE',  ( 0.0000000000000000000, 0.0000000000000000000, -1.000000000000000000 ) ) ;
#41 =( NAMED_UNIT ( * ) SI_UNIT ( $, .STERADIAN. ) SOLID_ANGLE_UNIT ( ) );
#42 = CARTESIAN_POINT ( 'NONE',  ( 114.1421356237309700, 0.0000000000000000000, 0.0000000000000000000 ) ) ;
#43 = DIRECTION ( 'NONE',  ( -1.000000000000000000, -0.0000000000000000000, -0.0000000000000000000 ) ) ;
#44 = SHAPE_DEFINITION_REPRESENTATION ( #179, #4 ) ;
#45 = EDGE_LOOP ( 'NONE', ( #21, #246, #147, #233 ) ) ;
#46 = DIRECTION ( 'NONE',  ( 0.0000000000000000000, 0.0000000000000000000, 1.000000000000000000 ) ) ;
#47 = ORIENTED_EDGE ( 'NONE', *, *, #127, .T. ) ;
#48 = PRODUCT ( 'TU1065R-20.step', 'TU1065R-20.step', '', ( #135 ) ) ;
#49 = CARTESIAN_POINT ( 'NONE',  ( 100.0000000000000000, 0.0000000000000000000, 3.250000000000000400 ) ) ;
#50 = UNCERTAINTY_MEASURE_WITH_UNIT (LENGTH_MEASURE( 1.000000000000000100E-005 ), #295, 'distance_accuracy_value', 'NONE');
#51 =( NAMED_UNIT ( * ) SI_UNIT ( $, .STERADIAN. ) SOLID_ANGLE_UNIT ( ) );
#52 = DIRECTION ( 'NONE',  ( 1.000000000000000000, 0.0000000000000000000, 0.0000000000000000000 ) ) ;
#53 = VERTEX_POINT ( 'NONE', #145 ) ;
#54 = VECTOR ( 'NONE', #43, 1000.000000000000000 ) ;
#55 =( GEOMETRIC_REPRESENTATION_CONTEXT ( 3 ) GLOBAL_UNCERTAINTY_ASSIGNED_CONTEXT ( ( #56 ) ) GLOBAL_UNIT_ASSIGNED_CONTEXT ( ( #276, #211, #170 ) ) REPRESENTATION_CONTEXT ( 'NONE', 'WORKASPACE' ) );
#56 = UNCERTAINTY_MEASURE_WITH_UNIT (LENGTH_MEASURE( 1.000000000000000100E-005 ), #276, 'distance_accuracy_value', 'NONE');
#57 = CARTESIAN_POINT ( 'NONE',  ( 0.0000000000000000000, 6.123233995736765300E-016, -5.000000000000000000 ) ) ;
#58 = ORIENTED_EDGE ( 'NONE', *, *, #108, .T. ) ;
#59 = VERTEX_POINT ( 'NONE', #57 ) ;
#60 = ORIENTED_EDGE ( 'NONE', *, *, #287, .T. ) ;
#61 = CIRCLE ( 'NONE', #157, 3.250000000000000400 ) ;
#62 = EDGE_CURVE ( 'NONE', #116, #53, #210, .T. ) ;
#63 =( NAMED_UNIT ( * ) PLANE_ANGLE_UNIT ( ) SI_UNIT ( $, .RADIAN. ) );
#64 = ADVANCED_BREP_SHAPE_REPRESENTATION ( '', ( #132, #321 ), #340 ) ;
#65 =( NAMED_UNIT ( * ) PLANE_ANGLE_UNIT ( ) SI_UNIT ( $, .RADIAN. ) );
#66 = FILL_AREA_STYLE ('',( #284 ) ) ;
#67 =( LENGTH_UNIT ( ) NAMED_UNIT ( * ) SI_UNIT ( .MILLI., .METRE. ) );
#68 = DIRECTION ( 'NONE',  ( 0.0000000000000000000, 0.0000000000000000000, -1.000000000000000000 ) ) ;
#69 = DIRECTION ( 'NONE',  ( -1.000000000000000000, -0.0000000000000000000, -0.0000000000000000000 ) ) ;
#70 = CARTESIAN_POINT ( 'NONE',  ( 0.0000000000000000000, 0.0000000000000000000, 0.0000000000000000000 ) ) ;
#71 = DIRECTION ( 'NONE',  ( 1.000000000000000000, 0.0000000000000000000, 0.0000000000000000000 ) ) ;
#72 = DIRECTION ( 'NONE',  ( 0.0000000000000000000, 0.0000000000000000000, 1.000000000000000000 ) ) ;
#73 = SURFACE_STYLE_USAGE ( .BOTH. , #128 ) ;
#74 = PRODUCT_DEFINITION_SHAPE ( 'NONE', 'NONE',  #341 ) ;
#75 = SURFACE_SIDE_STYLE ('',( #227 ) ) ;
#76 =( NAMED_UNIT ( * ) SI_UNIT ( $, .STERADIAN. ) SOLID_ANGLE_UNIT ( ) );
#77 = CARTESIAN_POINT ( 'NONE',  ( 0.0000000000000000000, 0.0000000000000000000, 0.0000000000000000000 ) ) ;
#78 = SURFACE_STYLE_FILL_AREA ( #33 ) ;
#79 = DIRECTION ( 'NONE',  ( 1.000000000000000000, 0.0000000000000000000, 0.0000000000000000000 ) ) ;
#80 = FACE_OUTER_BOUND ( 'NONE', #176, .T. ) ;
#81 =( NAMED_UNIT ( * ) SI_UNIT ( $, .STERADIAN. ) SOLID_ANGLE_UNIT ( ) );
#82 = STYLED_ITEM ( 'NONE', ( #249 ), #64 ) ;
#83 = COLOUR_RGB ( '',1.000000000000000000, 0.1254901960784313700, 0.1607843137254901800 ) ;
#84 = PRESENTATION_LAYER_ASSIGNMENT (  '', '', ( #236 ) ) ;
#85 = VECTOR ( 'NONE', #121, 1000.000000000000000 ) ;
#86 = SHAPE_DEFINITION_REPRESENTATION ( #338, #152 ) ;
#87 = CARTESIAN_POINT ( 'NONE',  ( 0.0000000000000000000, 0.0000000000000000000, 0.0000000000000000000 ) ) ;
#88 = SURFACE_SIDE_STYLE ('',( #325 ) ) ;
#89 = STYLED_ITEM ( 'NONE', ( #187 ), #162 ) ;
#90 = FACE_OUTER_BOUND ( 'NONE', #288, .T. ) ;
#91 = EDGE_CURVE ( 'NONE', #299, #59, #155, .T. ) ;
#92 =( LENGTH_UNIT ( ) NAMED_UNIT ( * ) SI_UNIT ( .MILLI., .METRE. ) );
#93 =( NAMED_UNIT ( * ) PLANE_ANGLE_UNIT ( ) SI_UNIT ( $, .RADIAN. ) );
#94 =( NAMED_UNIT ( * ) PLANE_ANGLE_UNIT ( ) SI_UNIT ( $, .RADIAN. ) );
#95 = STYLED_ITEM ( 'NONE', ( #130 ), #206 ) ;
#96 = AXIS2_PLACEMENT_3D ( 'NONE', #87, #298, #32 ) ;
#97 =( NAMED_UNIT ( * ) PLANE_ANGLE_UNIT ( ) SI_UNIT ( $, .RADIAN. ) );
#98 = COLOUR_RGB ( '',1.000000000000000000, 0.1254901960784313700, 0.1607843137254901800 ) ;
#99 = SURFACE_STYLE_USAGE ( .BOTH. , #75 ) ;
#100 = PRODUCT ( 'TU1065R-20.step_TU3076 Tube_1065R', 'TU1065R-20.step_TU3076 Tube_1065R', '', ( #161 ) ) ;
#101 = EDGE_CURVE ( 'NONE', #151, #125, #217, .T. ) ;
#102 =( GEOMETRIC_REPRESENTATION_CONTEXT ( 3 ) GLOBAL_UNCERTAINTY_ASSIGNED_CONTEXT ( ( #205 ) ) GLOBAL_UNIT_ASSIGNED_CONTEXT ( ( #20, #94, #263 ) ) REPRESENTATION_CONTEXT ( 'NONE', 'WORKASPACE' ) );
#103 = EDGE_CURVE ( 'NONE', #141, #59, #262, .T. ) ;
#104 =( GEOMETRIC_REPRESENTATION_CONTEXT ( 3 ) GLOBAL_UNCERTAINTY_ASSIGNED_CONTEXT ( ( #271 ) ) GLOBAL_UNIT_ASSIGNED_CONTEXT ( ( #214, #142, #226 ) ) REPRESENTATION_CONTEXT ( 'NONE', 'WORKASPACE' ) );
#105 = STYLED_ITEM ( 'NONE', ( #239 ), #319 ) ;
#106 = FILL_AREA_STYLE_COLOUR ( '', #202 ) ;
#107 = PRESENTATION_LAYER_ASSIGNMENT (  '', '', ( #213 ) ) ;
#108 = EDGE_CURVE ( 'NONE', #125, #151, #195, .T. ) ;
#109 =( GEOMETRIC_REPRESENTATION_CONTEXT ( 3 ) GLOBAL_UNCERTAINTY_ASSIGNED_CONTEXT ( ( #50 ) ) GLOBAL_UNIT_ASSIGNED_CONTEXT ( ( #295, #93, #291 ) ) REPRESENTATION_CONTEXT ( 'NONE', 'WORKASPACE' ) );
#110 =( GEOMETRIC_REPRESENTATION_CONTEXT ( 3 ) GLOBAL_UNCERTAINTY_ASSIGNED_CONTEXT ( ( #218 ) ) GLOBAL_UNIT_ASSIGNED_CONTEXT ( ( #244, #17, #154 ) ) REPRESENTATION_CONTEXT ( 'NONE', 'WORKASPACE' ) );
#111 = AXIS2_PLACEMENT_3D ( 'NONE', #336, #223, #326 ) ;
#112 = AXIS2_PLACEMENT_3D ( 'NONE', #234, #232, #180 ) ;
#113 = MECHANICAL_DESIGN_GEOMETRIC_PRESENTATION_REPRESENTATION (  '', ( #95 ), #55 ) ;
#114 = CARTESIAN_POINT ( 'NONE',  ( 0.0000000000000000000, 0.0000000000000000000, 0.0000000000000000000 ) ) ;
#115 = CARTESIAN_POINT ( 'NONE',  ( 114.1421356237309700, 3.980102097228897200E-016, -3.250000000000000400 ) ) ;
#116 = VERTEX_POINT ( 'NONE', #280 ) ;
#117 = CARTESIAN_POINT ( 'NONE',  ( 114.1421356237309700, 0.0000000000000000000, 0.0000000000000000000 ) ) ;
#118 = APPLICATION_PROTOCOL_DEFINITION ( 'draft international standard', 'automotive_design', 1998, #178 ) ;
#119 = ORIENTED_EDGE ( 'NONE', *, *, #62, .F. ) ;
#120 = PRESENTATION_LAYER_ASSIGNMENT (  '', '', ( #281 ) ) ;
#121 = DIRECTION ( 'NONE',  ( -1.000000000000000000, -0.0000000000000000000, -0.0000000000000000000 ) ) ;
#122 = DIRECTION ( 'NONE',  ( 0.0000000000000000000, 0.0000000000000000000, 1.000000000000000000 ) ) ;
#123 = MECHANICAL_DESIGN_GEOMETRIC_PRESENTATION_REPRESENTATION (  '', ( #281 ), #188 ) ;
#124 = DIRECTION ( 'NONE',  ( 1.000000000000000000, 0.0000000000000000000, 0.0000000000000000000 ) ) ;
#125 = VERTEX_POINT ( 'NONE', #334 ) ;
#126 = CLOSED_SHELL ( 'NONE', ( #13, #319, #192, #196, #206, #162 ) ) ;
#127 = EDGE_CURVE ( 'NONE', #151, #53, #293, .T. ) ;
#128 = SURFACE_SIDE_STYLE ('',( #305 ) ) ;
#129 = DIRECTION ( 'NONE',  ( 0.0000000000000000000, 0.0000000000000000000, 1.000000000000000000 ) ) ;
#130 = PRESENTATION_STYLE_ASSIGNMENT (( #11 ) ) ;
#131 = DIRECTION ( 'NONE',  ( 0.0000000000000000000, 0.0000000000000000000, -1.000000000000000000 ) ) ;
#132 = MANIFOLD_SOLID_BREP ( 'Tube', #126 ) ;
#133 = CARTESIAN_POINT ( 'NONE',  ( 114.1421356237309700, 0.0000000000000000000, 0.0000000000000000000 ) ) ;
#134 = FILL_AREA_STYLE ('',( #37 ) ) ;
#135 = PRODUCT_CONTEXT ( 'NONE', #270, 'mechanical' ) ;
#136 = FACE_OUTER_BOUND ( 'NONE', #45, .T. ) ;
#137 = CONTEXT_DEPENDENT_SHAPE_REPRESENTATION ( #167, #74 ) ;
#138 =( NAMED_UNIT ( * ) SI_UNIT ( $, .STERADIAN. ) SOLID_ANGLE_UNIT ( ) );
#139 = DIRECTION ( 'NONE',  ( 1.000000000000000000, 0.0000000000000000000, 0.0000000000000000000 ) ) ;
#140 = CARTESIAN_POINT ( 'NONE',  ( 0.0000000000000000000, 0.0000000000000000000, 0.0000000000000000000 ) ) ;
#141 = VERTEX_POINT ( 'NONE', #204 ) ;
#142 =( NAMED_UNIT ( * ) PLANE_ANGLE_UNIT ( ) SI_UNIT ( $, .RADIAN. ) );
#143 = EDGE_CURVE ( 'NONE', #185, #141, #220, .T. ) ;
#144 = PRESENTATION_LAYER_ASSIGNMENT (  '', '', ( #105 ) ) ;
#145 = CARTESIAN_POINT ( 'NONE',  ( 0.0000000000000000000, 0.0000000000000000000, 3.250000000000000400 ) ) ;
#146 = MECHANICAL_DESIGN_GEOMETRIC_PRESENTATION_REPRESENTATION (  '', ( #213 ), #109 ) ;
#147 = ORIENTED_EDGE ( 'NONE', *, *, #212, .F. ) ;
#148 = CYLINDRICAL_SURFACE ( 'NONE', #324, 5.000000000000000000 ) ;
#149 = PRODUCT_DEFINITION_CONTEXT ( 'detailed design', #178, 'design' ) ;
#150 = FACE_OUTER_BOUND ( 'NONE', #10, .T. ) ;
#151 = VERTEX_POINT ( 'NONE', #49 ) ;
#152 = SHAPE_REPRESENTATION ( 'TU1065R-20.step', ( #310, #312 ), #309 ) ;
#153 = APPLICATION_PROTOCOL_DEFINITION ( 'draft international standard', 'automotive_design', 1998, #270 ) ;
#154 =( NAMED_UNIT ( * ) SI_UNIT ( $, .STERADIAN. ) SOLID_ANGLE_UNIT ( ) );
#155 = LINE ( 'NONE', #14, #285 ) ;
#156 = AXIS2_PLACEMENT_3D ( 'NONE', #36, #184, #274 ) ;
#157 = AXIS2_PLACEMENT_3D ( 'NONE', #257, #52, #68 ) ;
#158 = PRESENTATION_LAYER_ASSIGNMENT (  '', '', ( #89 ) ) ;
#159 = FILL_AREA_STYLE ('',( #106 ) ) ;
#160 = COLOUR_RGB ( '',1.000000000000000000, 0.1254901960784313700, 0.1607843137254901800 ) ;
#161 = PRODUCT_CONTEXT ( 'NONE', #174, 'mechanical' ) ;
#162 = ADVANCED_FACE ( 'NONE', ( #3, #301 ), #260, .T. ) ;
#163 = FILL_AREA_STYLE_COLOUR ( '', #83 ) ;
#164 = UNCERTAINTY_MEASURE_WITH_UNIT (LENGTH_MEASURE( 1.000000000000000100E-005 ), #92, 'distance_accuracy_value', 'NONE');
#165 = DIRECTION ( 'NONE',  ( -1.000000000000000000, -0.0000000000000000000, -0.0000000000000000000 ) ) ;
#166 = SURFACE_STYLE_FILL_AREA ( #134 ) ;
#167 =( REPRESENTATION_RELATIONSHIP ('NONE','NONE', #152, #4 ) REPRESENTATION_RELATIONSHIP_WITH_TRANSFORMATION ( #289 )SHAPE_REPRESENTATION_RELATIONSHIP( ) );
#168 = CYLINDRICAL_SURFACE ( 'NONE', #208, 5.000000000000000000 ) ;
#169 = CARTESIAN_POINT ( 'NONE',  ( 0.0000000000000000000, 0.0000000000000000000, 0.0000000000000000000 ) ) ;
#170 =( NAMED_UNIT ( * ) SI_UNIT ( $, .STERADIAN. ) SOLID_ANGLE_UNIT ( ) );
#171 = SURFACE_SIDE_STYLE ('',( #38 ) ) ;
#172 = CIRCLE ( 'NONE', #201, 5.000000000000000000 ) ;
#173 = CYLINDRICAL_SURFACE ( 'NONE', #6, 3.250000000000000400 ) ;
#174 = APPLICATION_CONTEXT ( 'automotive_design' ) ;
#175 = MECHANICAL_DESIGN_GEOMETRIC_PRESENTATION_REPRESENTATION (  '', ( #105 ), #191 ) ;
#176 = EDGE_LOOP ( 'NONE', ( #34, #190, #248, #256 ) ) ;
#177 = AXIS2_PLACEMENT_3D ( 'NONE', #140, #139, #131 ) ;
#178 = APPLICATION_CONTEXT ( 'automotive_design' ) ;
#179 = PRODUCT_DEFINITION_SHAPE ( 'NONE', 'NONE',  #313 ) ;
#180 = DIRECTION ( 'NONE',  ( 0.0000000000000000000, 0.0000000000000000000, -1.000000000000000000 ) ) ;
#181 = FACE_OUTER_BOUND ( 'NONE', #29, .T. ) ;
#182 = CIRCLE ( 'NONE', #111, 5.000000000000000000 ) ;
#183 = SURFACE_STYLE_USAGE ( .BOTH. , #171 ) ;
#184 = DIRECTION ( 'NONE',  ( -1.000000000000000000, -0.0000000000000000000, -0.0000000000000000000 ) ) ;
#185 = VERTEX_POINT ( 'NONE', #18 ) ;
#186 = DIRECTION ( 'NONE',  ( 0.0000000000000000000, 0.0000000000000000000, -1.000000000000000000 ) ) ;
#187 = PRESENTATION_STYLE_ASSIGNMENT (( #323 ) ) ;
#188 =( GEOMETRIC_REPRESENTATION_CONTEXT ( 3 ) GLOBAL_UNCERTAINTY_ASSIGNED_CONTEXT ( ( #200 ) ) GLOBAL_UNIT_ASSIGNED_CONTEXT ( ( #267, #302, #41 ) ) REPRESENTATION_CONTEXT ( 'NONE', 'WORKASPACE' ) );
#189 = SURFACE_SIDE_STYLE ('',( #26 ) ) ;
#190 = ORIENTED_EDGE ( 'NONE', *, *, #91, .T. ) ;
#191 =( GEOMETRIC_REPRESENTATION_CONTEXT ( 3 ) GLOBAL_UNCERTAINTY_ASSIGNED_CONTEXT ( ( #164 ) ) GLOBAL_UNIT_ASSIGNED_CONTEXT ( ( #92, #97, #81 ) ) REPRESENTATION_CONTEXT ( 'NONE', 'WORKASPACE' ) );
#192 = ADVANCED_FACE ( 'NONE', ( #150 ), #168, .T. ) ;
#193 = COLOUR_RGB ( '',0.0000000000000000000, 0.5843137254901961100, 0.9058823529411764700 ) ;
#194 = DIRECTION ( 'NONE',  ( 1.000000000000000000, 0.0000000000000000000, 0.0000000000000000000 ) ) ;
#195 = CIRCLE ( 'NONE', #228, 3.250000000000000400 ) ;
#196 = ADVANCED_FACE ( 'NONE', ( #90, #266 ), #297, .F. ) ;
#197 = FILL_AREA_STYLE ('',( #327 ) ) ;
#198 = PRESENTATION_STYLE_ASSIGNMENT (( #296 ) ) ;
#199 = CIRCLE ( 'NONE', #177, 5.000000000000000000 ) ;
#200 = UNCERTAINTY_MEASURE_WITH_UNIT (LENGTH_MEASURE( 1.000000000000000100E-005 ), #267, 'distance_accuracy_value', 'NONE');
#201 = AXIS2_PLACEMENT_3D ( 'NONE', #243, #9, #318 ) ;
#202 = COLOUR_RGB ( '',1.000000000000000000, 0.1254901960784313700, 0.1607843137254901800 ) ;
#203 = VECTOR ( 'NONE', #165, 1000.000000000000000 ) ;
#204 = CARTESIAN_POINT ( 'NONE',  ( 0.0000000000000000000, 0.0000000000000000000, 5.000000000000000000 ) ) ;
#205 = UNCERTAINTY_MEASURE_WITH_UNIT (LENGTH_MEASURE( 1.000000000000000100E-005 ), #20, 'distance_accuracy_value', 'NONE');
#206 = ADVANCED_FACE ( 'NONE', ( #181 ), #264, .F. ) ;
#207 = AXIS2_PLACEMENT_3D ( 'NONE', #238, #30, #40 ) ;
#208 = AXIS2_PLACEMENT_3D ( 'NONE', #42, #250, #7 ) ;
#209 = CARTESIAN_POINT ( 'NONE',  ( 100.0000000000000000, 6.123233995736765300E-016, -5.000000000000000000 ) ) ;
#210 = CIRCLE ( 'NONE', #15, 3.250000000000000400 ) ;
#211 =( NAMED_UNIT ( * ) PLANE_ANGLE_UNIT ( ) SI_UNIT ( $, .RADIAN. ) );
#212 = EDGE_CURVE ( 'NONE', #53, #116, #61, .T. ) ;
#213 = STYLED_ITEM ( 'NONE', ( #198 ), #196 ) ;
#214 =( LENGTH_UNIT ( ) NAMED_UNIT ( * ) SI_UNIT ( .MILLI., .METRE. ) );
#215 = PRODUCT_RELATED_PRODUCT_CATEGORY ( 'part', '', ( #100 ) ) ;
#216 = DIRECTION ( 'NONE',  ( -1.000000000000000000, -0.0000000000000000000, -0.0000000000000000000 ) ) ;
#217 = CIRCLE ( 'NONE', #207, 3.250000000000000400 ) ;
#218 = UNCERTAINTY_MEASURE_WITH_UNIT (LENGTH_MEASURE( 1.000000000000000100E-005 ), #244, 'distance_accuracy_value', 'NONE');
#219 = MECHANICAL_DESIGN_GEOMETRIC_PRESENTATION_REPRESENTATION (  '', ( #89 ), #104 ) ;
#220 = LINE ( 'NONE', #255, #54 ) ;
#221 = COLOUR_RGB ( '',1.000000000000000000, 0.1254901960784313700, 0.1607843137254901800 ) ;
#222 = UNCERTAINTY_MEASURE_WITH_UNIT (LENGTH_MEASURE( 1.000000000000000100E-005 ), #67, 'distance_accuracy_value', 'NONE');
#223 = DIRECTION ( 'NONE',  ( 1.000000000000000000, 0.0000000000000000000, 0.0000000000000000000 ) ) ;
#224 = ORIENTED_EDGE ( 'NONE', *, *, #230, .T. ) ;
#225 = SURFACE_STYLE_FILL_AREA ( #240 ) ;
#226 =( NAMED_UNIT ( * ) SI_UNIT ( $, .STERADIAN. ) SOLID_ANGLE_UNIT ( ) );
#227 = SURFACE_STYLE_FILL_AREA ( #66 ) ;
#228 = AXIS2_PLACEMENT_3D ( 'NONE', #286, #333, #186 ) ;
#229 = SURFACE_SIDE_STYLE ('',( #225 ) ) ;
#230 = EDGE_CURVE ( 'NONE', #185, #299, #172, .T. ) ;
#231 = ORIENTED_EDGE ( 'NONE', *, *, #108, .F. ) ;
#232 = DIRECTION ( 'NONE',  ( 1.000000000000000000, 0.0000000000000000000, 0.0000000000000000000 ) ) ;
#233 = ORIENTED_EDGE ( 'NONE', *, *, #127, .F. ) ;
#234 = CARTESIAN_POINT ( 'NONE',  ( 100.0000000000000000, 0.0000000000000000000, 0.0000000000000000000 ) ) ;
#235 = ORIENTED_EDGE ( 'NONE', *, *, #103, .F. ) ;
#236 = STYLED_ITEM ( 'NONE', ( #19 ), #13 ) ;
#237 = CARTESIAN_POINT ( 'NONE',  ( 0.0000000000000000000, 0.0000000000000000000, 0.0000000000000000000 ) ) ;
#238 = CARTESIAN_POINT ( 'NONE',  ( 100.0000000000000000, 0.0000000000000000000, 0.0000000000000000000 ) ) ;
#239 = PRESENTATION_STYLE_ASSIGNMENT (( #99 ) ) ;
#240 = FILL_AREA_STYLE ('',( #25 ) ) ;
#241 = DIRECTION ( 'NONE',  ( 0.0000000000000000000, 0.0000000000000000000, -1.000000000000000000 ) ) ;
#242 = ORIENTED_EDGE ( 'NONE', *, *, #101, .F. ) ;
#243 = CARTESIAN_POINT ( 'NONE',  ( 100.0000000000000000, 0.0000000000000000000, 0.0000000000000000000 ) ) ;
#244 =( LENGTH_UNIT ( ) NAMED_UNIT ( * ) SI_UNIT ( .MILLI., .METRE. ) );
#245 = APPLICATION_PROTOCOL_DEFINITION ( 'draft international standard', 'automotive_design', 1998, #2 ) ;
#246 = ORIENTED_EDGE ( 'NONE', *, *, #320, .T. ) ;
#247 = PRESENTATION_STYLE_ASSIGNMENT (( #265 ) ) ;
#248 = ORIENTED_EDGE ( 'NONE', *, *, #335, .T. ) ;
#249 = PRESENTATION_STYLE_ASSIGNMENT (( #73 ) ) ;
#250 = DIRECTION ( 'NONE',  ( -1.000000000000000000, -0.0000000000000000000, -0.0000000000000000000 ) ) ;
#251 = FILL_AREA_STYLE ('',( #279 ) ) ;
#252 = ORIENTED_EDGE ( 'NONE', *, *, #103, .T. ) ;
#253 = ORIENTED_EDGE ( 'NONE', *, *, #320, .F. ) ;
#254 =( LENGTH_UNIT ( ) NAMED_UNIT ( * ) SI_UNIT ( .MILLI., .METRE. ) );
#255 = CARTESIAN_POINT ( 'NONE',  ( 114.1421356237309700, 0.0000000000000000000, 5.000000000000000000 ) ) ;
#256 = ORIENTED_EDGE ( 'NONE', *, *, #143, .F. ) ;
#257 = CARTESIAN_POINT ( 'NONE',  ( 0.0000000000000000000, 0.0000000000000000000, 0.0000000000000000000 ) ) ;
#258 = ORIENTED_EDGE ( 'NONE', *, *, #212, .T. ) ;
#259 = CARTESIAN_POINT ( 'NONE',  ( 0.0000000000000000000, 0.0000000000000000000, 0.0000000000000000000 ) ) ;
#260 = PLANE ( 'NONE',  #112 ) ;
#261 = ORIENTED_EDGE ( 'NONE', *, *, #230, .F. ) ;
#262 = CIRCLE ( 'NONE', #283, 5.000000000000000000 ) ;
#263 =( NAMED_UNIT ( * ) SI_UNIT ( $, .STERADIAN. ) SOLID_ANGLE_UNIT ( ) );
#264 = CYLINDRICAL_SURFACE ( 'NONE', #156, 3.250000000000000400 ) ;
#265 = SURFACE_STYLE_USAGE ( .BOTH. , #189 ) ;
#266 = FACE_BOUND ( 'NONE', #27, .T. ) ;
#267 =( LENGTH_UNIT ( ) NAMED_UNIT ( * ) SI_UNIT ( .MILLI., .METRE. ) );
#268 = SHAPE_REPRESENTATION_RELATIONSHIP ( 'NONE' , 'NONE' ,  #4, #64 ) ;
#269 = PRESENTATION_LAYER_ASSIGNMENT (  '', '', ( #82 ) ) ;
#270 = APPLICATION_CONTEXT ( 'automotive_design' ) ;
#271 = UNCERTAINTY_MEASURE_WITH_UNIT (LENGTH_MEASURE( 1.000000000000000100E-005 ), #214, 'distance_accuracy_value', 'NONE');
#272 = EDGE_LOOP ( 'NONE', ( #224, #60 ) ) ;
#273 = ORIENTED_EDGE ( 'NONE', *, *, #335, .F. ) ;
#274 = DIRECTION ( 'NONE',  ( 0.0000000000000000000, 0.0000000000000000000, 1.000000000000000000 ) ) ;
#275 = PRODUCT_DEFINITION_CONTEXT ( 'detailed design', #2, 'design' ) ;
#276 =( LENGTH_UNIT ( ) NAMED_UNIT ( * ) SI_UNIT ( .MILLI., .METRE. ) );
#277 = APPLICATION_PROTOCOL_DEFINITION ( 'draft international standard', 'automotive_design', 1998, #174 ) ;
#278 = ORIENTED_EDGE ( 'NONE', *, *, #143, .T. ) ;
#279 = FILL_AREA_STYLE_COLOUR ( '', #290 ) ;
#280 = CARTESIAN_POINT ( 'NONE',  ( 0.0000000000000000000, 3.980102097228897200E-016, -3.250000000000000400 ) ) ;
#281 = STYLED_ITEM ( 'NONE', ( #247 ), #192 ) ;
#282 = DIRECTION ( 'NONE',  ( 1.000000000000000000, 0.0000000000000000000, 0.0000000000000000000 ) ) ;
#283 = AXIS2_PLACEMENT_3D ( 'NONE', #259, #292, #300 ) ;
#284 = FILL_AREA_STYLE_COLOUR ( '', #160 ) ;
#285 = VECTOR ( 'NONE', #330, 1000.000000000000000 ) ;
#286 = CARTESIAN_POINT ( 'NONE',  ( 100.0000000000000000, 0.0000000000000000000, 0.0000000000000000000 ) ) ;
#287 = EDGE_CURVE ( 'NONE', #299, #185, #182, .T. ) ;
#288 = EDGE_LOOP ( 'NONE', ( #235, #273 ) ) ;
#289 = ITEM_DEFINED_TRANSFORMATION ( 'NONE', 'NONE', #312,  #321 ) ;
#290 = COLOUR_RGB ( '',1.000000000000000000, 0.1254901960784313700, 0.1607843137254901800 ) ;
#291 =( NAMED_UNIT ( * ) SI_UNIT ( $, .STERADIAN. ) SOLID_ANGLE_UNIT ( ) );
#292 = DIRECTION ( 'NONE',  ( 1.000000000000000000, 0.0000000000000000000, 0.0000000000000000000 ) ) ;
#293 = LINE ( 'NONE', #31, #203 ) ;
#294 = UNCERTAINTY_MEASURE_WITH_UNIT (LENGTH_MEASURE( 1.000000000000000100E-005 ), #254, 'distance_accuracy_value', 'NONE');
#295 =( LENGTH_UNIT ( ) NAMED_UNIT ( * ) SI_UNIT ( .MILLI., .METRE. ) );
#296 = SURFACE_STYLE_USAGE ( .BOTH. , #314 ) ;
#297 = PLANE ( 'NONE',  #96 ) ;
#298 = DIRECTION ( 'NONE',  ( 1.000000000000000000, 0.0000000000000000000, 0.0000000000000000000 ) ) ;
#299 = VERTEX_POINT ( 'NONE', #209 ) ;
#300 = DIRECTION ( 'NONE',  ( 0.0000000000000000000, 0.0000000000000000000, -1.000000000000000000 ) ) ;
#301 = FACE_OUTER_BOUND ( 'NONE', #272, .T. ) ;
#302 =( NAMED_UNIT ( * ) PLANE_ANGLE_UNIT ( ) SI_UNIT ( $, .RADIAN. ) );
#303 = MECHANICAL_DESIGN_GEOMETRIC_PRESENTATION_REPRESENTATION (  '', ( #236 ), #102 ) ;
#304 = PRODUCT_DEFINITION_FORMATION_WITH_SPECIFIED_SOURCE ( 'ANY', '', #48, .NOT_KNOWN. ) ;
#305 = SURFACE_STYLE_FILL_AREA ( #159 ) ;
#306 = PRODUCT_RELATED_PRODUCT_CATEGORY ( 'part', '', ( #48 ) ) ;
#307 = PRODUCT_DEFINITION_FORMATION_WITH_SPECIFIED_SOURCE ( 'ANY', '', #100, .NOT_KNOWN. ) ;
#308 = STYLED_ITEM ( 'NONE', ( #331 ), #132 ) ;
#309 =( GEOMETRIC_REPRESENTATION_CONTEXT ( 3 ) GLOBAL_UNCERTAINTY_ASSIGNED_CONTEXT ( ( #28 ) ) GLOBAL_UNIT_ASSIGNED_CONTEXT ( ( #12, #16, #76 ) ) REPRESENTATION_CONTEXT ( 'NONE', 'WORKASPACE' ) );
#310 = AXIS2_PLACEMENT_3D ( 'NONE', #114, #72, #71 ) ;
#311 = PRODUCT_DEFINITION ( 'UNKNOWN', '', #304, #275 ) ;
#312 = AXIS2_PLACEMENT_3D ( 'NONE', #77, #122, #124 ) ;
#313 = PRODUCT_DEFINITION ( 'UNKNOWN', '', #307, #149 ) ;
#314 = SURFACE_SIDE_STYLE ('',( #78 ) ) ;
#315 = MECHANICAL_DESIGN_GEOMETRIC_PRESENTATION_REPRESENTATION (  '', ( #82 ), #316 ) ;
#316 =( GEOMETRIC_REPRESENTATION_CONTEXT ( 3 ) GLOBAL_UNCERTAINTY_ASSIGNED_CONTEXT ( ( #294 ) ) GLOBAL_UNIT_ASSIGNED_CONTEXT ( ( #254, #65, #51 ) ) REPRESENTATION_CONTEXT ( 'NONE', 'WORKASPACE' ) );
#317 = MECHANICAL_DESIGN_GEOMETRIC_PRESENTATION_REPRESENTATION (  '', ( #308 ), #110 ) ;
#318 = DIRECTION ( 'NONE',  ( 0.0000000000000000000, 0.0000000000000000000, -1.000000000000000000 ) ) ;
#319 = ADVANCED_FACE ( 'NONE', ( #80 ), #148, .T. ) ;
#320 = EDGE_CURVE ( 'NONE', #125, #116, #328, .T. ) ;
#321 = AXIS2_PLACEMENT_3D ( 'NONE', #169, #129, #194 ) ;
#322 = DIRECTION ( 'NONE',  ( 0.0000000000000000000, 0.0000000000000000000, 1.000000000000000000 ) ) ;
#323 = SURFACE_STYLE_USAGE ( .BOTH. , #229 ) ;
#324 = AXIS2_PLACEMENT_3D ( 'NONE', #117, #69, #322 ) ;
#325 = SURFACE_STYLE_FILL_AREA ( #24 ) ;
#326 = DIRECTION ( 'NONE',  ( 0.0000000000000000000, 0.0000000000000000000, -1.000000000000000000 ) ) ;
#327 = FILL_AREA_STYLE_COLOUR ( '', #98 ) ;
#328 = LINE ( 'NONE', #115, #85 ) ;
#329 = PRESENTATION_LAYER_ASSIGNMENT (  '', '', ( #308 ) ) ;
#330 = DIRECTION ( 'NONE',  ( -1.000000000000000000, -0.0000000000000000000, -0.0000000000000000000 ) ) ;
#331 = PRESENTATION_STYLE_ASSIGNMENT (( #339 ) ) ;
#332 = AXIS2_PLACEMENT_3D ( 'NONE', #70, #46, #79 ) ;
#333 = DIRECTION ( 'NONE',  ( 1.000000000000000000, 0.0000000000000000000, 0.0000000000000000000 ) ) ;
#334 = CARTESIAN_POINT ( 'NONE',  ( 100.0000000000000000, 3.980102097228897200E-016, -3.250000000000000400 ) ) ;
#335 = EDGE_CURVE ( 'NONE', #59, #141, #199, .T. ) ;
#336 = CARTESIAN_POINT ( 'NONE',  ( 100.0000000000000000, 0.0000000000000000000, 0.0000000000000000000 ) ) ;
#337 = ORIENTED_EDGE ( 'NONE', *, *, #91, .F. ) ;
#338 = PRODUCT_DEFINITION_SHAPE ( 'NONE', 'NONE',  #311 ) ;
#339 = SURFACE_STYLE_USAGE ( .BOTH. , #23 ) ;
#340 =( GEOMETRIC_REPRESENTATION_CONTEXT ( 3 ) GLOBAL_UNCERTAINTY_ASSIGNED_CONTEXT ( ( #222 ) ) GLOBAL_UNIT_ASSIGNED_CONTEXT ( ( #67, #63, #138 ) ) REPRESENTATION_CONTEXT ( 'NONE', 'WORKASPACE' ) );
#341 = NEXT_ASSEMBLY_USAGE_OCCURRENCE ( 'NAUO1', ' ', ' ', #311, #313, $ ) ;
ENDSEC;
END-ISO-10303-21;
