ISO-10303-21;
HEADER;
FILE_DESCRIPTION (( 'STEP AP214' ),
    '1' );
FILE_NAME ('TU1208BU-100.step.step',
    '2014-05-15T17:38:30',
    ( 'Windows User' ),
    ( '' ),
    'SwSTEP 2.0',
    'SolidWorks 2014',
    '' );
FILE_SCHEMA (( 'AUTOMOTIVE_DESIGN' ));
ENDSEC;

DATA;
#1 = CIRCLE ( 'NONE', #211, 4.000000000000000000 ) ;
#2 = PRODUCT_RELATED_PRODUCT_CATEGORY ( 'part', '', ( #326 ) ) ;
#3 = CARTESIAN_POINT ( 'NONE',  ( 100.0000000000000000, 4.898587196589412800E-016, -4.000000000000000000 ) ) ;
#4 = PRESENTATION_LAYER_ASSIGNMENT (  '', '', ( #45 ) ) ;
#5 = PRESENTATION_LAYER_ASSIGNMENT (  '', '', ( #9 ) ) ;
#6 = AXIS2_PLACEMENT_3D ( 'NONE', #293, #294, #295 ) ;
#7 = PRESENTATION_LAYER_ASSIGNMENT (  '', '', ( #88 ) ) ;
#8 = EDGE_CURVE ( 'NONE', #66, #81, #141, .T. ) ;
#9 = STYLED_ITEM ( 'NONE', ( #118 ), #94 ) ;
#10 =( GEOMETRIC_REPRESENTATION_CONTEXT ( 3 ) GLOBAL_UNCERTAINTY_ASSIGNED_CONTEXT ( ( #101 ) ) GLOBAL_UNIT_ASSIGNED_CONTEXT ( ( #238, #239, #240 ) ) REPRESENTATION_CONTEXT ( 'NONE', 'WORKASPACE' ) );
#11 = PRODUCT_DEFINITION_SHAPE ( 'NONE', 'NONE',  #170 ) ;
#12 = ITEM_DEFINED_TRANSFORMATION ( 'NONE', 'NONE', #6,  #105 ) ;
#13 = UNCERTAINTY_MEASURE_WITH_UNIT (LENGTH_MEASURE( 1.000000000000000100E-005 ), #196, 'distance_accuracy_value', 'NONE');
#14 = COLOUR_RGB ( '',0.2470588235294117800, 0.6470588235294118000, 1.000000000000000000 ) ;
#15 = SURFACE_STYLE_FILL_AREA ( #254 ) ;
#16 = PRODUCT_CONTEXT ( 'NONE', #340, 'mechanical' ) ;
#17 = SURFACE_STYLE_FILL_AREA ( #246 ) ;
#18 = SURFACE_STYLE_FILL_AREA ( #247 ) ;
#19 = PRESENTATION_STYLE_ASSIGNMENT (( #249 ) ) ;
#20 = FACE_OUTER_BOUND ( 'NONE', #198, .T. ) ;
#21 = FACE_BOUND ( 'NONE', #143, .T. ) ;
#22 = LINE ( 'NONE', #203, #154 ) ;
#23 = ORIENTED_EDGE ( 'NONE', *, *, #92, .T. ) ;
#24 = ORIENTED_EDGE ( 'NONE', *, *, #25, .F. ) ;
#25 = EDGE_CURVE ( 'NONE', #72, #209, #74, .T. ) ;
#26 = CARTESIAN_POINT ( 'NONE',  ( 116.9705627484771400, 0.0000000000000000000, 4.000000000000000000 ) ) ;
#27 = COLOUR_RGB ( '',0.2470588235294117800, 0.6470588235294118000, 1.000000000000000000 ) ;
#28 = VECTOR ( 'NONE', #100, 1000.000000000000000 ) ;
#29 = ORIENTED_EDGE ( 'NONE', *, *, #39, .T. ) ;
#30 = ORIENTED_EDGE ( 'NONE', *, *, #91, .F. ) ;
#31 = EDGE_LOOP ( 'NONE', ( #152, #29, #309, #87 ) ) ;
#32 = EDGE_LOOP ( 'NONE', ( #142, #328 ) ) ;
#33 = VERTEX_POINT ( 'NONE', #332 ) ;
#34 = MECHANICAL_DESIGN_GEOMETRIC_PRESENTATION_REPRESENTATION (  '', ( #144 ), #230 ) ;
#35 = ORIENTED_EDGE ( 'NONE', *, *, #91, .T. ) ;
#36 = ORIENTED_EDGE ( 'NONE', *, *, #97, .F. ) ;
#37 = AXIS2_PLACEMENT_3D ( 'NONE', #178, #137, #140 ) ;
#38 = UNCERTAINTY_MEASURE_WITH_UNIT (LENGTH_MEASURE( 1.000000000000000100E-005 ), #250, 'distance_accuracy_value', 'NONE');
#39 = EDGE_CURVE ( 'NONE', #81, #33, #317, .T. ) ;
#40 = UNCERTAINTY_MEASURE_WITH_UNIT (LENGTH_MEASURE( 1.000000000000000100E-005 ), #260, 'distance_accuracy_value', 'NONE');
#41 = DIRECTION ( 'NONE',  ( 1.000000000000000000, 0.0000000000000000000, 0.0000000000000000000 ) ) ;
#42 = MECHANICAL_DESIGN_GEOMETRIC_PRESENTATION_REPRESENTATION (  '', ( #102 ), #10 ) ;
#43 = PRODUCT_DEFINITION_SHAPE ( 'NONE', 'NONE',  #183 ) ;
#44 = AXIS2_PLACEMENT_3D ( 'NONE', #180, #185, #173 ) ;
#45 = STYLED_ITEM ( 'NONE', ( #139 ), #131 ) ;
#46 = UNCERTAINTY_MEASURE_WITH_UNIT (LENGTH_MEASURE( 1.000000000000000100E-005 ), #225, 'distance_accuracy_value', 'NONE');
#47 =( NAMED_UNIT ( * ) SI_UNIT ( $, .STERADIAN. ) SOLID_ANGLE_UNIT ( ) );
#48 = AXIS2_PLACEMENT_3D ( 'NONE', #127, #147, #164 ) ;
#49 = DIRECTION ( 'NONE',  ( 1.000000000000000000, 0.0000000000000000000, 0.0000000000000000000 ) ) ;
#50 = CARTESIAN_POINT ( 'NONE',  ( 0.0000000000000000000, 0.0000000000000000000, 6.000000000000000900 ) ) ;
#51 = SURFACE_STYLE_USAGE ( .BOTH. , #111 ) ;
#52 = DIRECTION ( 'NONE',  ( -1.000000000000000000, -0.0000000000000000000, -0.0000000000000000000 ) ) ;
#53 = DIRECTION ( 'NONE',  ( -1.000000000000000000, -0.0000000000000000000, -0.0000000000000000000 ) ) ;
#54 = EDGE_CURVE ( 'NONE', #81, #66, #156, .T. ) ;
#55 = APPLICATION_CONTEXT ( 'automotive_design' ) ;
#56 = APPLICATION_PROTOCOL_DEFINITION ( 'draft international standard', 'automotive_design', 1998, #55 ) ;
#57 = CONTEXT_DEPENDENT_SHAPE_REPRESENTATION ( #305, #306 ) ;
#58 = APPLICATION_PROTOCOL_DEFINITION ( 'draft international standard', 'automotive_design', 1998, #301 ) ;
#59 = SHAPE_DEFINITION_REPRESENTATION ( #43, #220 ) ;
#60 = MANIFOLD_SOLID_BREP ( 'Tube', #79 ) ;
#61 = PRESENTATION_LAYER_ASSIGNMENT (  '', '', ( #144 ) ) ;
#62 = AXIS2_PLACEMENT_3D ( 'NONE', #265, #299, #300 ) ;
#63 = FACE_BOUND ( 'NONE', #158, .T. ) ;
#64 = MECHANICAL_DESIGN_GEOMETRIC_PRESENTATION_REPRESENTATION (  '', ( #307 ), #84 ) ;
#65 = FACE_OUTER_BOUND ( 'NONE', #31, .T. ) ;
#66 = VERTEX_POINT ( 'NONE', #93 ) ;
#67 = CIRCLE ( 'NONE', #48, 4.000000000000000000 ) ;
#68 = ORIENTED_EDGE ( 'NONE', *, *, #96, .T. ) ;
#69 = VERTEX_POINT ( 'NONE', #3 ) ;
#70 = COLOUR_RGB ( '',0.2470588235294117800, 0.6470588235294118000, 1.000000000000000000 ) ;
#71 = AXIS2_PLACEMENT_3D ( 'NONE', #85, #49, #135 ) ;
#72 = VERTEX_POINT ( 'NONE', #320 ) ;
#73 = UNCERTAINTY_MEASURE_WITH_UNIT (LENGTH_MEASURE( 1.000000000000000100E-005 ), #321, 'distance_accuracy_value', 'NONE');
#74 = LINE ( 'NONE', #26, #28 ) ;
#75 = SURFACE_STYLE_FILL_AREA ( #206 ) ;
#76 = CIRCLE ( 'NONE', #44, 6.000000000000000900 ) ;
#77 = VECTOR ( 'NONE', #52, 1000.000000000000000 ) ;
#78 = ORIENTED_EDGE ( 'NONE', *, *, #134, .T. ) ;
#79 = CLOSED_SHELL ( 'NONE', ( #325, #330, #131, #335, #272, #323 ) ) ;
#80 = COLOUR_RGB ( '',0.2470588235294117800, 0.6470588235294118000, 1.000000000000000000 ) ;
#81 = VERTEX_POINT ( 'NONE', #99 ) ;
#82 = VERTEX_POINT ( 'NONE', #50 ) ;
#83 = PRESENTATION_STYLE_ASSIGNMENT (( #237 ) ) ;
#84 =( GEOMETRIC_REPRESENTATION_CONTEXT ( 3 ) GLOBAL_UNCERTAINTY_ASSIGNED_CONTEXT ( ( #73 ) ) GLOBAL_UNIT_ASSIGNED_CONTEXT ( ( #321, #241, #47 ) ) REPRESENTATION_CONTEXT ( 'NONE', 'WORKASPACE' ) );
#85 = CARTESIAN_POINT ( 'NONE',  ( 100.0000000000000000, 0.0000000000000000000, 0.0000000000000000000 ) ) ;
#86 = ORIENTED_EDGE ( 'NONE', *, *, #25, .T. ) ;
#87 = ORIENTED_EDGE ( 'NONE', *, *, #134, .F. ) ;
#88 = STYLED_ITEM ( 'NONE', ( #122 ), #335 ) ;
#89 = EDGE_CURVE ( 'NONE', #72, #69, #193, .T. ) ;
#90 = CARTESIAN_POINT ( 'NONE',  ( 100.0000000000000000, 0.0000000000000000000, 0.0000000000000000000 ) ) ;
#91 = EDGE_CURVE ( 'NONE', #69, #201, #207, .T. ) ;
#92 = EDGE_CURVE ( 'NONE', #69, #72, #67, .T. ) ;
#93 = CARTESIAN_POINT ( 'NONE',  ( 100.0000000000000000, 0.0000000000000000000, 6.000000000000000900 ) ) ;
#94 = ADVANCED_BREP_SHAPE_REPRESENTATION ( '', ( #60, #105 ), #130 ) ;
#95 = APPLICATION_PROTOCOL_DEFINITION ( 'draft international standard', 'automotive_design', 1998, #340 ) ;
#96 = EDGE_CURVE ( 'NONE', #82, #33, #76, .T. ) ;
#97 = EDGE_CURVE ( 'NONE', #209, #201, #155, .T. ) ;
#98 = DIRECTION ( 'NONE',  ( 0.0000000000000000000, 0.0000000000000000000, -1.000000000000000000 ) ) ;
#99 = CARTESIAN_POINT ( 'NONE',  ( 100.0000000000000000, 7.347880794884120700E-016, -6.000000000000000900 ) ) ;
#100 = DIRECTION ( 'NONE',  ( -1.000000000000000000, -0.0000000000000000000, -0.0000000000000000000 ) ) ;
#101 = UNCERTAINTY_MEASURE_WITH_UNIT (LENGTH_MEASURE( 1.000000000000000100E-005 ), #238, 'distance_accuracy_value', 'NONE');
#102 = STYLED_ITEM ( 'NONE', ( #83 ), #323 ) ;
#103 = PRESENTATION_LAYER_ASSIGNMENT (  '', '', ( #307 ) ) ;
#104 = UNCERTAINTY_MEASURE_WITH_UNIT (LENGTH_MEASURE( 1.000000000000000100E-005 ), #276, 'distance_accuracy_value', 'NONE');
#105 = AXIS2_PLACEMENT_3D ( 'NONE', #280, #281, #282 ) ;
#106 = UNCERTAINTY_MEASURE_WITH_UNIT (LENGTH_MEASURE( 1.000000000000000100E-005 ), #287, 'distance_accuracy_value', 'NONE');
#107 = MECHANICAL_DESIGN_GEOMETRIC_PRESENTATION_REPRESENTATION (  '', ( #187 ), #336 ) ;
#108 = PRODUCT ( 'TU1208BU-100.step', 'TU1208BU-100.step', '', ( #16 ) ) ;
#109 = MECHANICAL_DESIGN_GEOMETRIC_PRESENTATION_REPRESENTATION (  '', ( #324 ), #110 ) ;
#110 =( GEOMETRIC_REPRESENTATION_CONTEXT ( 3 ) GLOBAL_UNCERTAINTY_ASSIGNED_CONTEXT ( ( #46 ) ) GLOBAL_UNIT_ASSIGNED_CONTEXT ( ( #225, #226, #227 ) ) REPRESENTATION_CONTEXT ( 'NONE', 'WORKASPACE' ) );
#111 = SURFACE_SIDE_STYLE ('',( #148 ) ) ;
#112 = DIRECTION ( 'NONE',  ( 1.000000000000000000, 0.0000000000000000000, 0.0000000000000000000 ) ) ;
#113 = UNCERTAINTY_MEASURE_WITH_UNIT (LENGTH_MEASURE( 1.000000000000000100E-005 ), #296, 'distance_accuracy_value', 'NONE');
#114 = PRESENTATION_LAYER_ASSIGNMENT (  '', '', ( #324 ) ) ;
#115 = SHAPE_DEFINITION_REPRESENTATION ( #11, #166 ) ;
#116 = PRODUCT_DEFINITION_CONTEXT ( 'detailed design', #55, 'design' ) ;
#117 = AXIS2_PLACEMENT_3D ( 'NONE', #174, #41, #98 ) ;
#118 = PRESENTATION_STYLE_ASSIGNMENT (( #286 ) ) ;
#119 = SURFACE_STYLE_FILL_AREA ( #284 ) ;
#120 = AXIS2_PLACEMENT_3D ( 'NONE', #290, #291, #292 ) ;
#121 = SHAPE_REPRESENTATION_RELATIONSHIP ( 'NONE' , 'NONE' ,  #220, #94 ) ;
#122 = PRESENTATION_STYLE_ASSIGNMENT (( #268 ) ) ;
#123 = CYLINDRICAL_SURFACE ( 'NONE', #182, 6.000000000000000900 ) ;
#124 = FACE_OUTER_BOUND ( 'NONE', #168, .T. ) ;
#125 = COLOUR_RGB ( '',0.2470588235294117800, 0.6470588235294118000, 1.000000000000000000 ) ;
#126 = CYLINDRICAL_SURFACE ( 'NONE', #200, 4.000000000000000000 ) ;
#127 = CARTESIAN_POINT ( 'NONE',  ( 100.0000000000000000, 0.0000000000000000000, 0.0000000000000000000 ) ) ;
#128 = PRESENTATION_STYLE_ASSIGNMENT (( #259 ) ) ;
#129 = COLOUR_RGB ( '',0.2470588235294117800, 0.6470588235294118000, 1.000000000000000000 ) ;
#130 =( GEOMETRIC_REPRESENTATION_CONTEXT ( 3 ) GLOBAL_UNCERTAINTY_ASSIGNED_CONTEXT ( ( #104 ) ) GLOBAL_UNIT_ASSIGNED_CONTEXT ( ( #276, #277, #278 ) ) REPRESENTATION_CONTEXT ( 'NONE', 'WORKASPACE' ) );
#131 = ADVANCED_FACE ( 'NONE', ( #210 ), #308, .T. ) ;
#132 = COLOUR_RGB ( '',0.2470588235294117800, 0.6470588235294118000, 1.000000000000000000 ) ;
#133 = CARTESIAN_POINT ( 'NONE',  ( 116.9705627484771400, 4.898587196589412800E-016, -4.000000000000000000 ) ) ;
#134 = EDGE_CURVE ( 'NONE', #66, #82, #22, .T. ) ;
#135 = DIRECTION ( 'NONE',  ( 0.0000000000000000000, 0.0000000000000000000, -1.000000000000000000 ) ) ;
#136 = FACE_OUTER_BOUND ( 'NONE', #32, .T. ) ;
#137 = DIRECTION ( 'NONE',  ( 1.000000000000000000, 0.0000000000000000000, 0.0000000000000000000 ) ) ;
#138 = SURFACE_STYLE_FILL_AREA ( #221 ) ;
#139 = PRESENTATION_STYLE_ASSIGNMENT (( #195 ) ) ;
#140 = DIRECTION ( 'NONE',  ( 0.0000000000000000000, 0.0000000000000000000, -1.000000000000000000 ) ) ;
#141 = CIRCLE ( 'NONE', #338, 6.000000000000000900 ) ;
#142 = ORIENTED_EDGE ( 'NONE', *, *, #8, .T. ) ;
#143 = EDGE_LOOP ( 'NONE', ( #327, #157 ) ) ;
#144 = STYLED_ITEM ( 'NONE', ( #19 ), #325 ) ;
#145 = CYLINDRICAL_SURFACE ( 'NONE', #169, 4.000000000000000000 ) ;
#146 =( GEOMETRIC_REPRESENTATION_CONTEXT ( 3 ) GLOBAL_UNCERTAINTY_ASSIGNED_CONTEXT ( ( #113 ) ) GLOBAL_UNIT_ASSIGNED_CONTEXT ( ( #296, #297, #298 ) ) REPRESENTATION_CONTEXT ( 'NONE', 'WORKASPACE' ) );
#147 = DIRECTION ( 'NONE',  ( 1.000000000000000000, 0.0000000000000000000, 0.0000000000000000000 ) ) ;
#148 = SURFACE_STYLE_FILL_AREA ( #190 ) ;
#149 = ORIENTED_EDGE ( 'NONE', *, *, #191, .F. ) ;
#150 = AXIS2_PLACEMENT_3D ( 'NONE', #179, #181, #322 ) ;
#151 = ORIENTED_EDGE ( 'NONE', *, *, #184, .F. ) ;
#152 = ORIENTED_EDGE ( 'NONE', *, *, #54, .F. ) ;
#153 = EDGE_LOOP ( 'NONE', ( #333, #162, #78, #68 ) ) ;
#154 = VECTOR ( 'NONE', #205, 1000.000000000000000 ) ;
#155 = CIRCLE ( 'NONE', #37, 4.000000000000000000 ) ;
#156 = CIRCLE ( 'NONE', #117, 6.000000000000000900 ) ;
#157 = ORIENTED_EDGE ( 'NONE', *, *, #92, .F. ) ;
#158 = EDGE_LOOP ( 'NONE', ( #313, #161 ) ) ;
#159 = CIRCLE ( 'NONE', #172, 6.000000000000000900 ) ;
#160 = VECTOR ( 'NONE', #53, 1000.000000000000000 ) ;
#161 = ORIENTED_EDGE ( 'NONE', *, *, #191, .T. ) ;
#162 = ORIENTED_EDGE ( 'NONE', *, *, #8, .F. ) ;
#163 = PRESENTATION_STYLE_ASSIGNMENT (( #224 ) ) ;
#164 = DIRECTION ( 'NONE',  ( 0.0000000000000000000, 0.0000000000000000000, -1.000000000000000000 ) ) ;
#165 =( GEOMETRIC_REPRESENTATION_CONTEXT ( 3 ) GLOBAL_UNCERTAINTY_ASSIGNED_CONTEXT ( ( #318 ) ) GLOBAL_UNIT_ASSIGNED_CONTEXT ( ( #269, #270, #271 ) ) REPRESENTATION_CONTEXT ( 'NONE', 'WORKASPACE' ) );
#166 = SHAPE_REPRESENTATION ( 'TU1208BU-100.step', ( #62, #6 ), #146 ) ;
#167 = EDGE_LOOP ( 'NONE', ( #30, #23, #86, #149 ) ) ;
#168 = EDGE_LOOP ( 'NONE', ( #312, #151 ) ) ;
#169 = AXIS2_PLACEMENT_3D ( 'NONE', #228, #208, #229 ) ;
#170 = PRODUCT_DEFINITION ( 'UNKNOWN', '', #188, #116 ) ;
#171 = FILL_AREA_STYLE_COLOUR ( '', #27 ) ;
#172 = AXIS2_PLACEMENT_3D ( 'NONE', #212, #213, #214 ) ;
#173 = DIRECTION ( 'NONE',  ( 0.0000000000000000000, 0.0000000000000000000, -1.000000000000000000 ) ) ;
#174 = CARTESIAN_POINT ( 'NONE',  ( 100.0000000000000000, 0.0000000000000000000, 0.0000000000000000000 ) ) ;
#175 = AXIS2_PLACEMENT_3D ( 'NONE', #273, #274, #275 ) ;
#176 = DIRECTION ( 'NONE',  ( 0.0000000000000000000, 0.0000000000000000000, -1.000000000000000000 ) ) ;
#177 = PRESENTATION_LAYER_ASSIGNMENT (  '', '', ( #187 ) ) ;
#178 = CARTESIAN_POINT ( 'NONE',  ( 0.0000000000000000000, 0.0000000000000000000, 0.0000000000000000000 ) ) ;
#179 = CARTESIAN_POINT ( 'NONE',  ( 116.9705627484771400, 0.0000000000000000000, 0.0000000000000000000 ) ) ;
#180 = CARTESIAN_POINT ( 'NONE',  ( 0.0000000000000000000, 0.0000000000000000000, 0.0000000000000000000 ) ) ;
#181 = DIRECTION ( 'NONE',  ( -1.000000000000000000, -0.0000000000000000000, -0.0000000000000000000 ) ) ;
#182 = AXIS2_PLACEMENT_3D ( 'NONE', #256, #257, #263 ) ;
#183 = PRODUCT_DEFINITION ( 'UNKNOWN', '', #334, #186 ) ;
#184 = EDGE_CURVE ( 'NONE', #33, #82, #159, .T. ) ;
#185 = DIRECTION ( 'NONE',  ( 1.000000000000000000, 0.0000000000000000000, 0.0000000000000000000 ) ) ;
#186 = PRODUCT_DEFINITION_CONTEXT ( 'detailed design', #303, 'design' ) ;
#187 = STYLED_ITEM ( 'NONE', ( #128 ), #330 ) ;
#188 = PRODUCT_DEFINITION_FORMATION_WITH_SPECIFIED_SOURCE ( 'ANY', '', #108, .NOT_KNOWN. ) ;
#189 = AXIS2_PLACEMENT_3D ( 'NONE', #242, #243, #244 ) ;
#190 = FILL_AREA_STYLE ('',( #314 ) ) ;
#191 = EDGE_CURVE ( 'NONE', #201, #209, #1, .T. ) ;
#192 = FILL_AREA_STYLE ('',( #171 ) ) ;
#193 = CIRCLE ( 'NONE', #71, 4.000000000000000000 ) ;
#194 = SURFACE_SIDE_STYLE ('',( #315 ) ) ;
#195 = SURFACE_STYLE_USAGE ( .BOTH. , #194 ) ;
#196 =( LENGTH_UNIT ( ) NAMED_UNIT ( * ) SI_UNIT ( .MILLI., .METRE. ) );
#197 =( NAMED_UNIT ( * ) PLANE_ANGLE_UNIT ( ) SI_UNIT ( $, .RADIAN. ) );
#198 = EDGE_LOOP ( 'NONE', ( #316, #35, #36, #24 ) ) ;
#199 =( NAMED_UNIT ( * ) SI_UNIT ( $, .STERADIAN. ) SOLID_ANGLE_UNIT ( ) );
#200 = AXIS2_PLACEMENT_3D ( 'NONE', #245, #231, #253 ) ;
#201 = VERTEX_POINT ( 'NONE', #202 ) ;
#202 = CARTESIAN_POINT ( 'NONE',  ( 0.0000000000000000000, 4.898587196589412800E-016, -4.000000000000000000 ) ) ;
#203 = CARTESIAN_POINT ( 'NONE',  ( 116.9705627484771400, 0.0000000000000000000, 6.000000000000000900 ) ) ;
#204 = PRODUCT_RELATED_PRODUCT_CATEGORY ( 'part', '', ( #108 ) ) ;
#205 = DIRECTION ( 'NONE',  ( -1.000000000000000000, -0.0000000000000000000, -0.0000000000000000000 ) ) ;
#206 = FILL_AREA_STYLE ('',( #235 ) ) ;
#207 = LINE ( 'NONE', #133, #160 ) ;
#208 = DIRECTION ( 'NONE',  ( -1.000000000000000000, -0.0000000000000000000, -0.0000000000000000000 ) ) ;
#209 = VERTEX_POINT ( 'NONE', #215 ) ;
#210 = FACE_OUTER_BOUND ( 'NONE', #153, .T. ) ;
#211 = AXIS2_PLACEMENT_3D ( 'NONE', #217, #218, #219 ) ;
#212 = CARTESIAN_POINT ( 'NONE',  ( 0.0000000000000000000, 0.0000000000000000000, 0.0000000000000000000 ) ) ;
#213 = DIRECTION ( 'NONE',  ( 1.000000000000000000, 0.0000000000000000000, 0.0000000000000000000 ) ) ;
#214 = DIRECTION ( 'NONE',  ( 0.0000000000000000000, 0.0000000000000000000, -1.000000000000000000 ) ) ;
#215 = CARTESIAN_POINT ( 'NONE',  ( 0.0000000000000000000, 0.0000000000000000000, 4.000000000000000000 ) ) ;
#216 = FILL_AREA_STYLE_COLOUR ( '', #80 ) ;
#217 = CARTESIAN_POINT ( 'NONE',  ( 0.0000000000000000000, 0.0000000000000000000, 0.0000000000000000000 ) ) ;
#218 = DIRECTION ( 'NONE',  ( 1.000000000000000000, 0.0000000000000000000, 0.0000000000000000000 ) ) ;
#219 = DIRECTION ( 'NONE',  ( 0.0000000000000000000, 0.0000000000000000000, -1.000000000000000000 ) ) ;
#220 = SHAPE_REPRESENTATION ( 'TU1208BU-100.step_TU3076 Tube_1208BU', ( #105 ), #130 ) ;
#221 = FILL_AREA_STYLE ('',( #216 ) ) ;
#222 =( GEOMETRIC_REPRESENTATION_CONTEXT ( 3 ) GLOBAL_UNCERTAINTY_ASSIGNED_CONTEXT ( ( #106 ) ) GLOBAL_UNIT_ASSIGNED_CONTEXT ( ( #287, #288, #289 ) ) REPRESENTATION_CONTEXT ( 'NONE', 'WORKASPACE' ) );
#223 = SURFACE_SIDE_STYLE ('',( #138 ) ) ;
#224 = SURFACE_STYLE_USAGE ( .BOTH. , #223 ) ;
#225 =( LENGTH_UNIT ( ) NAMED_UNIT ( * ) SI_UNIT ( .MILLI., .METRE. ) );
#226 =( NAMED_UNIT ( * ) PLANE_ANGLE_UNIT ( ) SI_UNIT ( $, .RADIAN. ) );
#227 =( NAMED_UNIT ( * ) SI_UNIT ( $, .STERADIAN. ) SOLID_ANGLE_UNIT ( ) );
#228 = CARTESIAN_POINT ( 'NONE',  ( 116.9705627484771400, 0.0000000000000000000, 0.0000000000000000000 ) ) ;
#229 = DIRECTION ( 'NONE',  ( 0.0000000000000000000, 0.0000000000000000000, 1.000000000000000000 ) ) ;
#230 =( GEOMETRIC_REPRESENTATION_CONTEXT ( 3 ) GLOBAL_UNCERTAINTY_ASSIGNED_CONTEXT ( ( #38 ) ) GLOBAL_UNIT_ASSIGNED_CONTEXT ( ( #250, #251, #252 ) ) REPRESENTATION_CONTEXT ( 'NONE', 'WORKASPACE' ) );
#231 = DIRECTION ( 'NONE',  ( -1.000000000000000000, -0.0000000000000000000, -0.0000000000000000000 ) ) ;
#232 = FACE_OUTER_BOUND ( 'NONE', #167, .T. ) ;
#233 = PLANE ( 'NONE',  #189 ) ;
#234 = FILL_AREA_STYLE_COLOUR ( '', #132 ) ;
#235 = FILL_AREA_STYLE_COLOUR ( '', #70 ) ;
#236 = SURFACE_SIDE_STYLE ('',( #75 ) ) ;
#237 = SURFACE_STYLE_USAGE ( .BOTH. , #236 ) ;
#238 =( LENGTH_UNIT ( ) NAMED_UNIT ( * ) SI_UNIT ( .MILLI., .METRE. ) );
#239 =( NAMED_UNIT ( * ) PLANE_ANGLE_UNIT ( ) SI_UNIT ( $, .RADIAN. ) );
#240 =( NAMED_UNIT ( * ) SI_UNIT ( $, .STERADIAN. ) SOLID_ANGLE_UNIT ( ) );
#241 =( NAMED_UNIT ( * ) PLANE_ANGLE_UNIT ( ) SI_UNIT ( $, .RADIAN. ) );
#242 = CARTESIAN_POINT ( 'NONE',  ( 100.0000000000000000, 0.0000000000000000000, 0.0000000000000000000 ) ) ;
#243 = DIRECTION ( 'NONE',  ( 1.000000000000000000, 0.0000000000000000000, 0.0000000000000000000 ) ) ;
#244 = DIRECTION ( 'NONE',  ( 0.0000000000000000000, 0.0000000000000000000, -1.000000000000000000 ) ) ;
#245 = CARTESIAN_POINT ( 'NONE',  ( 116.9705627484771400, 0.0000000000000000000, 0.0000000000000000000 ) ) ;
#246 = FILL_AREA_STYLE ('',( #255 ) ) ;
#247 = FILL_AREA_STYLE ('',( #234 ) ) ;
#248 = SURFACE_SIDE_STYLE ('',( #18 ) ) ;
#249 = SURFACE_STYLE_USAGE ( .BOTH. , #248 ) ;
#250 =( LENGTH_UNIT ( ) NAMED_UNIT ( * ) SI_UNIT ( .MILLI., .METRE. ) );
#251 =( NAMED_UNIT ( * ) PLANE_ANGLE_UNIT ( ) SI_UNIT ( $, .RADIAN. ) );
#252 =( NAMED_UNIT ( * ) SI_UNIT ( $, .STERADIAN. ) SOLID_ANGLE_UNIT ( ) );
#253 = DIRECTION ( 'NONE',  ( 0.0000000000000000000, 0.0000000000000000000, 1.000000000000000000 ) ) ;
#254 = FILL_AREA_STYLE ('',( #264 ) ) ;
#255 = FILL_AREA_STYLE_COLOUR ( '', #129 ) ;
#256 = CARTESIAN_POINT ( 'NONE',  ( 116.9705627484771400, 0.0000000000000000000, 0.0000000000000000000 ) ) ;
#257 = DIRECTION ( 'NONE',  ( -1.000000000000000000, -0.0000000000000000000, -0.0000000000000000000 ) ) ;
#258 = SURFACE_SIDE_STYLE ('',( #17 ) ) ;
#259 = SURFACE_STYLE_USAGE ( .BOTH. , #258 ) ;
#260 =( LENGTH_UNIT ( ) NAMED_UNIT ( * ) SI_UNIT ( .MILLI., .METRE. ) );
#261 =( NAMED_UNIT ( * ) PLANE_ANGLE_UNIT ( ) SI_UNIT ( $, .RADIAN. ) );
#262 =( NAMED_UNIT ( * ) SI_UNIT ( $, .STERADIAN. ) SOLID_ANGLE_UNIT ( ) );
#263 = DIRECTION ( 'NONE',  ( 0.0000000000000000000, 0.0000000000000000000, 1.000000000000000000 ) ) ;
#264 = FILL_AREA_STYLE_COLOUR ( '', #125 ) ;
#265 = CARTESIAN_POINT ( 'NONE',  ( 0.0000000000000000000, 0.0000000000000000000, 0.0000000000000000000 ) ) ;
#266 = PLANE ( 'NONE',  #175 ) ;
#267 = SURFACE_SIDE_STYLE ('',( #15 ) ) ;
#268 = SURFACE_STYLE_USAGE ( .BOTH. , #267 ) ;
#269 =( LENGTH_UNIT ( ) NAMED_UNIT ( * ) SI_UNIT ( .MILLI., .METRE. ) );
#270 =( NAMED_UNIT ( * ) PLANE_ANGLE_UNIT ( ) SI_UNIT ( $, .RADIAN. ) );
#271 =( NAMED_UNIT ( * ) SI_UNIT ( $, .STERADIAN. ) SOLID_ANGLE_UNIT ( ) );
#272 = ADVANCED_FACE ( 'NONE', ( #232 ), #145, .F. ) ;
#273 = CARTESIAN_POINT ( 'NONE',  ( 0.0000000000000000000, 0.0000000000000000000, 0.0000000000000000000 ) ) ;
#274 = DIRECTION ( 'NONE',  ( 1.000000000000000000, 0.0000000000000000000, 0.0000000000000000000 ) ) ;
#275 = DIRECTION ( 'NONE',  ( 0.0000000000000000000, 0.0000000000000000000, -1.000000000000000000 ) ) ;
#276 =( LENGTH_UNIT ( ) NAMED_UNIT ( * ) SI_UNIT ( .MILLI., .METRE. ) );
#277 =( NAMED_UNIT ( * ) PLANE_ANGLE_UNIT ( ) SI_UNIT ( $, .RADIAN. ) );
#278 =( NAMED_UNIT ( * ) SI_UNIT ( $, .STERADIAN. ) SOLID_ANGLE_UNIT ( ) );
#279 =( GEOMETRIC_REPRESENTATION_CONTEXT ( 3 ) GLOBAL_UNCERTAINTY_ASSIGNED_CONTEXT ( ( #13 ) ) GLOBAL_UNIT_ASSIGNED_CONTEXT ( ( #196, #197, #199 ) ) REPRESENTATION_CONTEXT ( 'NONE', 'WORKASPACE' ) );
#280 = CARTESIAN_POINT ( 'NONE',  ( 0.0000000000000000000, 0.0000000000000000000, 0.0000000000000000000 ) ) ;
#281 = DIRECTION ( 'NONE',  ( 0.0000000000000000000, 0.0000000000000000000, 1.000000000000000000 ) ) ;
#282 = DIRECTION ( 'NONE',  ( 1.000000000000000000, 0.0000000000000000000, 0.0000000000000000000 ) ) ;
#283 = FILL_AREA_STYLE_COLOUR ( '', #14 ) ;
#284 = FILL_AREA_STYLE ('',( #283 ) ) ;
#285 = SURFACE_SIDE_STYLE ('',( #119 ) ) ;
#286 = SURFACE_STYLE_USAGE ( .BOTH. , #285 ) ;
#287 =( LENGTH_UNIT ( ) NAMED_UNIT ( * ) SI_UNIT ( .MILLI., .METRE. ) );
#288 =( NAMED_UNIT ( * ) PLANE_ANGLE_UNIT ( ) SI_UNIT ( $, .RADIAN. ) );
#289 =( NAMED_UNIT ( * ) SI_UNIT ( $, .STERADIAN. ) SOLID_ANGLE_UNIT ( ) );
#290 = CARTESIAN_POINT ( 'NONE',  ( 0.0000000000000000000, 0.0000000000000000000, 0.0000000000000000000 ) ) ;
#291 = DIRECTION ( 'NONE',  ( 0.0000000000000000000, 0.0000000000000000000, 1.000000000000000000 ) ) ;
#292 = DIRECTION ( 'NONE',  ( 1.000000000000000000, 0.0000000000000000000, 0.0000000000000000000 ) ) ;
#293 = CARTESIAN_POINT ( 'NONE',  ( 0.0000000000000000000, 0.0000000000000000000, 0.0000000000000000000 ) ) ;
#294 = DIRECTION ( 'NONE',  ( 0.0000000000000000000, 0.0000000000000000000, 1.000000000000000000 ) ) ;
#295 = DIRECTION ( 'NONE',  ( 1.000000000000000000, 0.0000000000000000000, 0.0000000000000000000 ) ) ;
#296 =( LENGTH_UNIT ( ) NAMED_UNIT ( * ) SI_UNIT ( .MILLI., .METRE. ) );
#297 =( NAMED_UNIT ( * ) PLANE_ANGLE_UNIT ( ) SI_UNIT ( $, .RADIAN. ) );
#298 =( NAMED_UNIT ( * ) SI_UNIT ( $, .STERADIAN. ) SOLID_ANGLE_UNIT ( ) );
#299 = DIRECTION ( 'NONE',  ( 0.0000000000000000000, 0.0000000000000000000, 1.000000000000000000 ) ) ;
#300 = DIRECTION ( 'NONE',  ( 1.000000000000000000, 0.0000000000000000000, 0.0000000000000000000 ) ) ;
#301 = APPLICATION_CONTEXT ( 'automotive_design' ) ;
#302 = PRODUCT_CONTEXT ( 'NONE', #301, 'mechanical' ) ;
#303 = APPLICATION_CONTEXT ( 'automotive_design' ) ;
#304 = APPLICATION_PROTOCOL_DEFINITION ( 'draft international standard', 'automotive_design', 1998, #303 ) ;
#305 =( REPRESENTATION_RELATIONSHIP ('NONE','NONE', #166, #220 ) REPRESENTATION_RELATIONSHIP_WITH_TRANSFORMATION ( #12 )SHAPE_REPRESENTATION_RELATIONSHIP( ) );
#306 = PRODUCT_DEFINITION_SHAPE ( 'NONE', 'NONE',  #341 ) ;
#307 = STYLED_ITEM ( 'NONE', ( #310 ), #60 ) ;
#308 = CYLINDRICAL_SURFACE ( 'NONE', #150, 6.000000000000000900 ) ;
#309 = ORIENTED_EDGE ( 'NONE', *, *, #184, .T. ) ;
#310 = PRESENTATION_STYLE_ASSIGNMENT (( #51 ) ) ;
#311 = COLOUR_RGB ( '',0.0000000000000000000, 0.5843137254901961100, 0.9058823529411764700 ) ;
#312 = ORIENTED_EDGE ( 'NONE', *, *, #96, .F. ) ;
#313 = ORIENTED_EDGE ( 'NONE', *, *, #97, .T. ) ;
#314 = FILL_AREA_STYLE_COLOUR ( '', #311 ) ;
#315 = SURFACE_STYLE_FILL_AREA ( #192 ) ;
#316 = ORIENTED_EDGE ( 'NONE', *, *, #89, .T. ) ;
#317 = LINE ( 'NONE', #337, #77 ) ;
#318 = UNCERTAINTY_MEASURE_WITH_UNIT (LENGTH_MEASURE( 1.000000000000000100E-005 ), #269, 'distance_accuracy_value', 'NONE');
#319 = PRESENTATION_LAYER_ASSIGNMENT (  '', '', ( #102 ) ) ;
#320 = CARTESIAN_POINT ( 'NONE',  ( 100.0000000000000000, 0.0000000000000000000, 4.000000000000000000 ) ) ;
#321 =( LENGTH_UNIT ( ) NAMED_UNIT ( * ) SI_UNIT ( .MILLI., .METRE. ) );
#322 = DIRECTION ( 'NONE',  ( 0.0000000000000000000, 0.0000000000000000000, 1.000000000000000000 ) ) ;
#323 = ADVANCED_FACE ( 'NONE', ( #21, #136 ), #233, .T. ) ;
#324 = STYLED_ITEM ( 'NONE', ( #163 ), #272 ) ;
#325 = ADVANCED_FACE ( 'NONE', ( #20 ), #126, .F. ) ;
#326 = PRODUCT ( 'TU1208BU-100.step_TU3076 Tube_1208BU', 'TU1208BU-100.step_TU3076 Tube_1208BU', '', ( #302 ) ) ;
#327 = ORIENTED_EDGE ( 'NONE', *, *, #89, .F. ) ;
#328 = ORIENTED_EDGE ( 'NONE', *, *, #54, .T. ) ;
#329 = MECHANICAL_DESIGN_GEOMETRIC_PRESENTATION_REPRESENTATION (  '', ( #45 ), #279 ) ;
#330 = ADVANCED_FACE ( 'NONE', ( #65 ), #123, .T. ) ;
#331 = MECHANICAL_DESIGN_GEOMETRIC_PRESENTATION_REPRESENTATION (  '', ( #88 ), #165 ) ;
#332 = CARTESIAN_POINT ( 'NONE',  ( 0.0000000000000000000, 7.347880794884120700E-016, -6.000000000000000900 ) ) ;
#333 = ORIENTED_EDGE ( 'NONE', *, *, #39, .F. ) ;
#334 = PRODUCT_DEFINITION_FORMATION_WITH_SPECIFIED_SOURCE ( 'ANY', '', #326, .NOT_KNOWN. ) ;
#335 = ADVANCED_FACE ( 'NONE', ( #124, #63 ), #266, .F. ) ;
#336 =( GEOMETRIC_REPRESENTATION_CONTEXT ( 3 ) GLOBAL_UNCERTAINTY_ASSIGNED_CONTEXT ( ( #40 ) ) GLOBAL_UNIT_ASSIGNED_CONTEXT ( ( #260, #261, #262 ) ) REPRESENTATION_CONTEXT ( 'NONE', 'WORKASPACE' ) );
#337 = CARTESIAN_POINT ( 'NONE',  ( 116.9705627484771400, 7.347880794884120700E-016, -6.000000000000000900 ) ) ;
#338 = AXIS2_PLACEMENT_3D ( 'NONE', #90, #112, #176 ) ;
#339 = MECHANICAL_DESIGN_GEOMETRIC_PRESENTATION_REPRESENTATION (  '', ( #9 ), #222 ) ;
#340 = APPLICATION_CONTEXT ( 'automotive_design' ) ;
#341 = NEXT_ASSEMBLY_USAGE_OCCURRENCE ( 'NAUO1', ' ', ' ', #170, #183, $ ) ;
ENDSEC;
END-ISO-10303-21;
