ISO-10303-21;
HEADER;
FILE_DESCRIPTION (( 'STEP AP214' ),
    '1' );
FILE_NAME ('TU1208BU-20.step.step',
    '2011-06-07T06:10:18',
    ( 'SysAdmin' ),
    ( 'SolidWorks' ),
    'SwSTEP 2.0',
    'SolidWorks 2011',
    '' );
FILE_SCHEMA (( 'AUTOMOTIVE_DESIGN' ));
ENDSEC;

DATA;
#1 = ORIENTED_EDGE ( 'NONE', *, *, #43, .T. ) ;
#2 = EDGE_LOOP ( 'NONE', ( #48, #37 ) ) ;
#3 = VERTEX_POINT ( 'NONE', #168 ) ;
#4 = ORIENTED_EDGE ( 'NONE', *, *, #57, .T. ) ;
#5 = ORIENTED_EDGE ( 'NONE', *, *, #7, .F. ) ;
#6 = ORIENTED_EDGE ( 'NONE', *, *, #43, .F. ) ;
#7 = EDGE_CURVE ( 'NONE', #64, #63, #214, .T. ) ;
#8 = ADVANCED_FACE ( 'NONE', ( #185, #128 ), #151, .T. ) ;
#9 = ORIENTED_EDGE ( 'NONE', *, *, #73, .T. ) ;
#10 = ORIENTED_EDGE ( 'NONE', *, *, #60, .F. ) ;
#11 = ORIENTED_EDGE ( 'NONE', *, *, #50, .T. ) ;
#12 =( NAMED_UNIT ( * ) PLANE_ANGLE_UNIT ( ) SI_UNIT ( $, .RADIAN. ) );
#13 = ORIENTED_EDGE ( 'NONE', *, *, #29, .T. ) ;
#14 =( GEOMETRIC_REPRESENTATION_CONTEXT ( 3 ) GLOBAL_UNCERTAINTY_ASSIGNED_CONTEXT ( ( #19 ) ) GLOBAL_UNIT_ASSIGNED_CONTEXT ( ( #17, #12, #20 ) ) REPRESENTATION_CONTEXT ( 'NONE', 'WORKASPACE' ) );
#15 = CLOSED_SHELL ( 'NONE', ( #62, #76, #55, #47, #46, #8 ) ) ;
#16 = EDGE_LOOP ( 'NONE', ( #10, #5 ) ) ;
#17 =( LENGTH_UNIT ( ) NAMED_UNIT ( * ) SI_UNIT ( .MILLI., .METRE. ) );
#18 = EDGE_LOOP ( 'NONE', ( #11, #9 ) ) ;
#19 = UNCERTAINTY_MEASURE_WITH_UNIT (LENGTH_MEASURE( 1.000000000000000100E-005 ), #17, 'distance_accuracy_value', 'NONE');
#20 =( NAMED_UNIT ( * ) SI_UNIT ( $, .STERADIAN. ) SOLID_ANGLE_UNIT ( ) );
#21 = PRODUCT ( 'TU1208BU-20.step_TU3076 Tube_1208BU', 'TU1208BU-20.step_TU3076 Tube_1208BU', '', ( #282 ) ) ;
#22 = PRODUCT_RELATED_PRODUCT_CATEGORY ( 'part', '', ( #21 ) ) ;
#23 = APPLICATION_PROTOCOL_DEFINITION ( 'draft international standard', 'automotive_design', 1998, #24 ) ;
#24 = APPLICATION_CONTEXT ( 'automotive_design' ) ;
#25 = PRODUCT_DEFINITION_FORMATION_WITH_SPECIFIED_SOURCE ( 'ANY', '', #21, .NOT_KNOWN. ) ;
#26 = PRODUCT_DEFINITION ( 'UNKNOWN', '', #25, #27 ) ;
#27 = PRODUCT_DEFINITION_CONTEXT ( 'detailed design', #24, 'design' ) ;
#28 = PRODUCT_DEFINITION_SHAPE ( 'NONE', 'NONE',  #26 ) ;
#29 = EDGE_CURVE ( 'NONE', #63, #77, #80, .T. ) ;
#30 = ORIENTED_EDGE ( 'NONE', *, *, #29, .F. ) ;
#31 = EDGE_LOOP ( 'NONE', ( #70, #74, #66, #38 ) ) ;
#32 = VERTEX_POINT ( 'NONE', #162 ) ;
#33 = CONTEXT_DEPENDENT_SHAPE_REPRESENTATION ( #65, #35 ) ;
#34 = NEXT_ASSEMBLY_USAGE_OCCURRENCE ( 'NAUO1', ' ', ' ', #305, #26, $ ) ;
#35 = PRODUCT_DEFINITION_SHAPE ( 'NONE', 'NONE',  #34 ) ;
#36 = ORIENTED_EDGE ( 'NONE', *, *, #39, .T. ) ;
#37 = ORIENTED_EDGE ( 'NONE', *, *, #44, .F. ) ;
#38 = ORIENTED_EDGE ( 'NONE', *, *, #51, .F. ) ;
#39 = EDGE_CURVE ( 'NONE', #3, #32, #161, .T. ) ;
#40 = EDGE_LOOP ( 'NONE', ( #41, #53, #13, #6 ) ) ;
#41 = ORIENTED_EDGE ( 'NONE', *, *, #68, .F. ) ;
#42 = EDGE_LOOP ( 'NONE', ( #4, #1 ) ) ;
#43 = EDGE_CURVE ( 'NONE', #58, #77, #213, .T. ) ;
#44 = EDGE_CURVE ( 'NONE', #32, #3, #197, .T. ) ;
#45 = ORIENTED_EDGE ( 'NONE', *, *, #75, .F. ) ;
#46 = ADVANCED_FACE ( 'NONE', ( #157 ), #196, .F. ) ;
#47 = ADVANCED_FACE ( 'NONE', ( #198, #173 ), #155, .F. ) ;
#48 = ORIENTED_EDGE ( 'NONE', *, *, #39, .F. ) ;
#49 = EDGE_LOOP ( 'NONE', ( #45, #52, #54, #36 ) ) ;
#50 = EDGE_CURVE ( 'NONE', #72, #71, #138, .T. ) ;
#51 = EDGE_CURVE ( 'NONE', #72, #3, #200, .T. ) ;
#52 = ORIENTED_EDGE ( 'NONE', *, *, #50, .F. ) ;
#53 = ORIENTED_EDGE ( 'NONE', *, *, #7, .T. ) ;
#54 = ORIENTED_EDGE ( 'NONE', *, *, #51, .T. ) ;
#55 = ADVANCED_FACE ( 'NONE', ( #207 ), #201, .T. ) ;
#56 = ORIENTED_EDGE ( 'NONE', *, *, #68, .T. ) ;
#57 = EDGE_CURVE ( 'NONE', #77, #58, #116, .T. ) ;
#58 = VERTEX_POINT ( 'NONE', #235 ) ;
#59 = EDGE_LOOP ( 'NONE', ( #69, #56, #61, #30 ) ) ;
#60 = EDGE_CURVE ( 'NONE', #63, #64, #226, .T. ) ;
#61 = ORIENTED_EDGE ( 'NONE', *, *, #57, .F. ) ;
#62 = ADVANCED_FACE ( 'NONE', ( #219 ), #229, .F. ) ;
#63 = VERTEX_POINT ( 'NONE', #276 ) ;
#64 = VERTEX_POINT ( 'NONE', #257 ) ;
#65 =( REPRESENTATION_RELATIONSHIP ('NONE','NONE', #287, #294 ) REPRESENTATION_RELATIONSHIP_WITH_TRANSFORMATION ( #78 )SHAPE_REPRESENTATION_RELATIONSHIP( ) );
#66 = ORIENTED_EDGE ( 'NONE', *, *, #44, .T. ) ;
#67 = SHAPE_DEFINITION_REPRESENTATION ( #28, #294 ) ;
#68 = EDGE_CURVE ( 'NONE', #64, #58, #234, .T. ) ;
#69 = ORIENTED_EDGE ( 'NONE', *, *, #60, .T. ) ;
#70 = ORIENTED_EDGE ( 'NONE', *, *, #73, .F. ) ;
#71 = VERTEX_POINT ( 'NONE', #230 ) ;
#72 = VERTEX_POINT ( 'NONE', #271 ) ;
#73 = EDGE_CURVE ( 'NONE', #71, #72, #280, .T. ) ;
#74 = ORIENTED_EDGE ( 'NONE', *, *, #75, .T. ) ;
#75 = EDGE_CURVE ( 'NONE', #71, #32, #222, .T. ) ;
#76 = ADVANCED_FACE ( 'NONE', ( #231 ), #250, .T. ) ;
#77 = VERTEX_POINT ( 'NONE', #91 ) ;
#78 = ITEM_DEFINED_TRANSFORMATION ( 'NONE', 'NONE', #324,  #284 ) ;
#79 = MANIFOLD_SOLID_BREP ( 'Tube', #15 ) ;
#80 = LINE ( 'NONE', #150, #186 ) ;
#81 =( LENGTH_UNIT ( ) NAMED_UNIT ( * ) SI_UNIT ( .MILLI., .METRE. ) );
#82 = MECHANICAL_DESIGN_GEOMETRIC_PRESENTATION_REPRESENTATION (  '', ( #164 ), #163 ) ;
#83 = PRESENTATION_LAYER_ASSIGNMENT (  '', '', ( #164 ) ) ;
#84 = COLOUR_RGB ( '',0.2470588235294117800, 0.6470588235294118000, 1.000000000000000000 ) ;
#85 =( GEOMETRIC_REPRESENTATION_CONTEXT ( 3 ) GLOBAL_UNCERTAINTY_ASSIGNED_CONTEXT ( ( #86 ) ) GLOBAL_UNIT_ASSIGNED_CONTEXT ( ( #130, #129, #87 ) ) REPRESENTATION_CONTEXT ( 'NONE', 'WORKASPACE' ) );
#86 = UNCERTAINTY_MEASURE_WITH_UNIT (LENGTH_MEASURE( 1.000000000000000100E-005 ), #130, 'distance_accuracy_value', 'NONE');
#87 =( NAMED_UNIT ( * ) SI_UNIT ( $, .STERADIAN. ) SOLID_ANGLE_UNIT ( ) );
#88 = SURFACE_SIDE_STYLE ('',( #89 ) ) ;
#89 = SURFACE_STYLE_FILL_AREA ( #120 ) ;
#90 = DIRECTION ( 'NONE',  ( 0.0000000000000000000, 0.0000000000000000000, -1.000000000000000000 ) ) ;
#91 = CARTESIAN_POINT ( 'NONE',  ( 0.0000000000000000000, 0.0000000000000000000, 4.000000000000000000 ) ) ;
#92 = MECHANICAL_DESIGN_GEOMETRIC_PRESENTATION_REPRESENTATION (  '', ( #94 ), #14 ) ;
#93 = PRESENTATION_LAYER_ASSIGNMENT (  '', '', ( #94 ) ) ;
#94 = STYLED_ITEM ( 'NONE', ( #95 ), #79 ) ;
#95 = PRESENTATION_STYLE_ASSIGNMENT (( #96 ) ) ;
#96 = SURFACE_STYLE_USAGE ( .BOTH. , #88 ) ;
#97 = DIRECTION ( 'NONE',  ( 1.000000000000000000, 0.0000000000000000000, 0.0000000000000000000 ) ) ;
#98 = DIRECTION ( 'NONE',  ( 0.0000000000000000000, 0.0000000000000000000, 1.000000000000000000 ) ) ;
#99 = COLOUR_RGB ( '',0.0000000000000000000, 0.5843137254901961100, 0.9058823529411764700 ) ;
#100 = DIRECTION ( 'NONE',  ( -1.000000000000000000, -0.0000000000000000000, -0.0000000000000000000 ) ) ;
#101 = CARTESIAN_POINT ( 'NONE',  ( 116.9705627484771400, 0.0000000000000000000, 0.0000000000000000000 ) ) ;
#102 =( GEOMETRIC_REPRESENTATION_CONTEXT ( 3 ) GLOBAL_UNCERTAINTY_ASSIGNED_CONTEXT ( ( #103 ) ) GLOBAL_UNIT_ASSIGNED_CONTEXT ( ( #106, #105, #104 ) ) REPRESENTATION_CONTEXT ( 'NONE', 'WORKASPACE' ) );
#103 = UNCERTAINTY_MEASURE_WITH_UNIT (LENGTH_MEASURE( 1.000000000000000100E-005 ), #106, 'distance_accuracy_value', 'NONE');
#104 =( NAMED_UNIT ( * ) SI_UNIT ( $, .STERADIAN. ) SOLID_ANGLE_UNIT ( ) );
#105 =( NAMED_UNIT ( * ) PLANE_ANGLE_UNIT ( ) SI_UNIT ( $, .RADIAN. ) );
#106 =( LENGTH_UNIT ( ) NAMED_UNIT ( * ) SI_UNIT ( .MILLI., .METRE. ) );
#107 = MECHANICAL_DESIGN_GEOMETRIC_PRESENTATION_REPRESENTATION (  '', ( #109 ), #102 ) ;
#108 = PRESENTATION_LAYER_ASSIGNMENT (  '', '', ( #109 ) ) ;
#109 = STYLED_ITEM ( 'NONE', ( #111 ), #55 ) ;
#110 =( NAMED_UNIT ( * ) SI_UNIT ( $, .STERADIAN. ) SOLID_ANGLE_UNIT ( ) );
#111 = PRESENTATION_STYLE_ASSIGNMENT (( #112 ) ) ;
#112 = SURFACE_STYLE_USAGE ( .BOTH. , #113 ) ;
#113 = SURFACE_SIDE_STYLE ('',( #115 ) ) ;
#114 = AXIS2_PLACEMENT_3D ( 'NONE', #122, #97, #90 ) ;
#115 = SURFACE_STYLE_FILL_AREA ( #140 ) ;
#116 = CIRCLE ( 'NONE', #114, 4.000000000000000000 ) ;
#117 = DIRECTION ( 'NONE',  ( -1.000000000000000000, -0.0000000000000000000, -0.0000000000000000000 ) ) ;
#118 = VECTOR ( 'NONE', #117, 1000.000000000000000 ) ;
#119 = FILL_AREA_STYLE_COLOUR ( '', #202 ) ;
#120 = FILL_AREA_STYLE ('',( #121 ) ) ;
#121 = FILL_AREA_STYLE_COLOUR ( '', #99 ) ;
#122 = CARTESIAN_POINT ( 'NONE',  ( 0.0000000000000000000, 0.0000000000000000000, 0.0000000000000000000 ) ) ;
#123 = DIRECTION ( 'NONE',  ( 0.0000000000000000000, 0.0000000000000000000, -1.000000000000000000 ) ) ;
#124 = CARTESIAN_POINT ( 'NONE',  ( 116.9705627484771400, 0.0000000000000000000, 6.000000000000000900 ) ) ;
#125 = FILL_AREA_STYLE_COLOUR ( '', #84 ) ;
#126 = UNCERTAINTY_MEASURE_WITH_UNIT (LENGTH_MEASURE( 1.000000000000000100E-005 ), #189, 'distance_accuracy_value', 'NONE');
#127 =( NAMED_UNIT ( * ) SI_UNIT ( $, .STERADIAN. ) SOLID_ANGLE_UNIT ( ) );
#128 = FACE_OUTER_BOUND ( 'NONE', #18, .T. ) ;
#129 =( NAMED_UNIT ( * ) PLANE_ANGLE_UNIT ( ) SI_UNIT ( $, .RADIAN. ) );
#130 =( LENGTH_UNIT ( ) NAMED_UNIT ( * ) SI_UNIT ( .MILLI., .METRE. ) );
#131 = MECHANICAL_DESIGN_GEOMETRIC_PRESENTATION_REPRESENTATION (  '', ( #133 ), #85 ) ;
#132 = PRESENTATION_LAYER_ASSIGNMENT (  '', '', ( #133 ) ) ;
#133 = STYLED_ITEM ( 'NONE', ( #134 ), #47 ) ;
#134 = PRESENTATION_STYLE_ASSIGNMENT (( #135 ) ) ;
#135 = SURFACE_STYLE_USAGE ( .BOTH. , #136 ) ;
#136 = SURFACE_SIDE_STYLE ('',( #137 ) ) ;
#137 = SURFACE_STYLE_FILL_AREA ( #174 ) ;
#138 = CIRCLE ( 'NONE', #181, 6.000000000000000900 ) ;
#139 = COLOUR_RGB ( '',0.2470588235294117800, 0.6470588235294118000, 1.000000000000000000 ) ;
#140 = FILL_AREA_STYLE ('',( #119 ) ) ;
#141 = AXIS2_PLACEMENT_3D ( 'NONE', #143, #154, #183 ) ;
#142 = AXIS2_PLACEMENT_3D ( 'NONE', #180, #204, #203 ) ;
#143 = CARTESIAN_POINT ( 'NONE',  ( 0.0000000000000000000, 0.0000000000000000000, 0.0000000000000000000 ) ) ;
#144 = DIRECTION ( 'NONE',  ( 0.0000000000000000000, 0.0000000000000000000, -1.000000000000000000 ) ) ;
#145 = DIRECTION ( 'NONE',  ( 1.000000000000000000, 0.0000000000000000000, 0.0000000000000000000 ) ) ;
#146 = CARTESIAN_POINT ( 'NONE',  ( 0.0000000000000000000, 0.0000000000000000000, 0.0000000000000000000 ) ) ;
#147 = CARTESIAN_POINT ( 'NONE',  ( 100.0000000000000000, 0.0000000000000000000, 0.0000000000000000000 ) ) ;
#148 =( NAMED_UNIT ( * ) PLANE_ANGLE_UNIT ( ) SI_UNIT ( $, .RADIAN. ) );
#149 = DIRECTION ( 'NONE',  ( -1.000000000000000000, -0.0000000000000000000, -0.0000000000000000000 ) ) ;
#150 = CARTESIAN_POINT ( 'NONE',  ( 116.9705627484771400, 0.0000000000000000000, 4.000000000000000000 ) ) ;
#151 = PLANE ( 'NONE',  #160 ) ;
#152 = UNCERTAINTY_MEASURE_WITH_UNIT (LENGTH_MEASURE( 1.000000000000000100E-005 ), #81, 'distance_accuracy_value', 'NONE');
#153 = AXIS2_PLACEMENT_3D ( 'NONE', #146, #145, #144 ) ;
#154 = DIRECTION ( 'NONE',  ( 1.000000000000000000, 0.0000000000000000000, 0.0000000000000000000 ) ) ;
#155 = PLANE ( 'NONE',  #142 ) ;
#156 = AXIS2_PLACEMENT_3D ( 'NONE', #169, #171, #170 ) ;
#157 = FACE_OUTER_BOUND ( 'NONE', #40, .T. ) ;
#158 = DIRECTION ( 'NONE',  ( 0.0000000000000000000, 0.0000000000000000000, -1.000000000000000000 ) ) ;
#159 = DIRECTION ( 'NONE',  ( 1.000000000000000000, 0.0000000000000000000, 0.0000000000000000000 ) ) ;
#160 = AXIS2_PLACEMENT_3D ( 'NONE', #215, #209, #194 ) ;
#161 = CIRCLE ( 'NONE', #193, 6.000000000000000900 ) ;
#162 = CARTESIAN_POINT ( 'NONE',  ( 0.0000000000000000000, 7.347880794884120700E-016, -6.000000000000000900 ) ) ;
#163 =( GEOMETRIC_REPRESENTATION_CONTEXT ( 3 ) GLOBAL_UNCERTAINTY_ASSIGNED_CONTEXT ( ( #152 ) ) GLOBAL_UNIT_ASSIGNED_CONTEXT ( ( #81, #148, #110 ) ) REPRESENTATION_CONTEXT ( 'NONE', 'WORKASPACE' ) );
#164 = STYLED_ITEM ( 'NONE', ( #165 ), #8 ) ;
#165 = PRESENTATION_STYLE_ASSIGNMENT (( #166 ) ) ;
#166 = SURFACE_STYLE_USAGE ( .BOTH. , #167 ) ;
#167 = SURFACE_SIDE_STYLE ('',( #184 ) ) ;
#168 = CARTESIAN_POINT ( 'NONE',  ( 0.0000000000000000000, 0.0000000000000000000, 6.000000000000000900 ) ) ;
#169 = CARTESIAN_POINT ( 'NONE',  ( 116.9705627484771400, 0.0000000000000000000, 0.0000000000000000000 ) ) ;
#170 = DIRECTION ( 'NONE',  ( 0.0000000000000000000, 0.0000000000000000000, 1.000000000000000000 ) ) ;
#171 = DIRECTION ( 'NONE',  ( -1.000000000000000000, -0.0000000000000000000, -0.0000000000000000000 ) ) ;
#172 = FILL_AREA_STYLE_COLOUR ( '', #139 ) ;
#173 = FACE_BOUND ( 'NONE', #42, .T. ) ;
#174 = FILL_AREA_STYLE ('',( #172 ) ) ;
#175 =( GEOMETRIC_REPRESENTATION_CONTEXT ( 3 ) GLOBAL_UNCERTAINTY_ASSIGNED_CONTEXT ( ( #126 ) ) GLOBAL_UNIT_ASSIGNED_CONTEXT ( ( #189, #188, #127 ) ) REPRESENTATION_CONTEXT ( 'NONE', 'WORKASPACE' ) );
#176 = PRESENTATION_STYLE_ASSIGNMENT (( #177 ) ) ;
#177 = SURFACE_STYLE_USAGE ( .BOTH. , #178 ) ;
#178 = SURFACE_SIDE_STYLE ('',( #179 ) ) ;
#179 = SURFACE_STYLE_FILL_AREA ( #199 ) ;
#180 = CARTESIAN_POINT ( 'NONE',  ( 0.0000000000000000000, 0.0000000000000000000, 0.0000000000000000000 ) ) ;
#181 = AXIS2_PLACEMENT_3D ( 'NONE', #205, #208, #123 ) ;
#182 = COLOUR_RGB ( '',0.2470588235294117800, 0.6470588235294118000, 1.000000000000000000 ) ;
#183 = DIRECTION ( 'NONE',  ( 0.0000000000000000000, 0.0000000000000000000, -1.000000000000000000 ) ) ;
#184 = SURFACE_STYLE_FILL_AREA ( #216 ) ;
#185 = FACE_BOUND ( 'NONE', #16, .T. ) ;
#186 = VECTOR ( 'NONE', #149, 1000.000000000000000 ) ;
#187 = CARTESIAN_POINT ( 'NONE',  ( 0.0000000000000000000, 0.0000000000000000000, 0.0000000000000000000 ) ) ;
#188 =( NAMED_UNIT ( * ) PLANE_ANGLE_UNIT ( ) SI_UNIT ( $, .RADIAN. ) );
#189 =( LENGTH_UNIT ( ) NAMED_UNIT ( * ) SI_UNIT ( .MILLI., .METRE. ) );
#190 = MECHANICAL_DESIGN_GEOMETRIC_PRESENTATION_REPRESENTATION (  '', ( #192 ), #175 ) ;
#191 = PRESENTATION_LAYER_ASSIGNMENT (  '', '', ( #192 ) ) ;
#192 = STYLED_ITEM ( 'NONE', ( #176 ), #46 ) ;
#193 = AXIS2_PLACEMENT_3D ( 'NONE', #187, #159, #158 ) ;
#194 = DIRECTION ( 'NONE',  ( 0.0000000000000000000, 0.0000000000000000000, -1.000000000000000000 ) ) ;
#195 = FILL_AREA_STYLE_COLOUR ( '', #182 ) ;
#196 = CYLINDRICAL_SURFACE ( 'NONE', #156, 4.000000000000000000 ) ;
#197 = CIRCLE ( 'NONE', #141, 6.000000000000000900 ) ;
#198 = FACE_OUTER_BOUND ( 'NONE', #2, .T. ) ;
#199 = FILL_AREA_STYLE ('',( #195 ) ) ;
#200 = LINE ( 'NONE', #124, #118 ) ;
#201 = CYLINDRICAL_SURFACE ( 'NONE', #206, 6.000000000000000900 ) ;
#202 = COLOUR_RGB ( '',0.2470588235294117800, 0.6470588235294118000, 1.000000000000000000 ) ;
#203 = DIRECTION ( 'NONE',  ( 0.0000000000000000000, 0.0000000000000000000, -1.000000000000000000 ) ) ;
#204 = DIRECTION ( 'NONE',  ( 1.000000000000000000, 0.0000000000000000000, 0.0000000000000000000 ) ) ;
#205 = CARTESIAN_POINT ( 'NONE',  ( 100.0000000000000000, 0.0000000000000000000, 0.0000000000000000000 ) ) ;
#206 = AXIS2_PLACEMENT_3D ( 'NONE', #101, #100, #98 ) ;
#207 = FACE_OUTER_BOUND ( 'NONE', #49, .T. ) ;
#208 = DIRECTION ( 'NONE',  ( 1.000000000000000000, 0.0000000000000000000, 0.0000000000000000000 ) ) ;
#209 = DIRECTION ( 'NONE',  ( 1.000000000000000000, 0.0000000000000000000, 0.0000000000000000000 ) ) ;
#210 = DIRECTION ( 'NONE',  ( 0.0000000000000000000, 0.0000000000000000000, -1.000000000000000000 ) ) ;
#211 = DIRECTION ( 'NONE',  ( 1.000000000000000000, 0.0000000000000000000, 0.0000000000000000000 ) ) ;
#212 = AXIS2_PLACEMENT_3D ( 'NONE', #147, #211, #210 ) ;
#213 = CIRCLE ( 'NONE', #153, 4.000000000000000000 ) ;
#214 = CIRCLE ( 'NONE', #212, 4.000000000000000000 ) ;
#215 = CARTESIAN_POINT ( 'NONE',  ( 100.0000000000000000, 0.0000000000000000000, 0.0000000000000000000 ) ) ;
#216 = FILL_AREA_STYLE ('',( #125 ) ) ;
#217 = CARTESIAN_POINT ( 'NONE',  ( 100.0000000000000000, 0.0000000000000000000, 0.0000000000000000000 ) ) ;
#218 = STYLED_ITEM ( 'NONE', ( #223 ), #62 ) ;
#219 = FACE_OUTER_BOUND ( 'NONE', #59, .T. ) ;
#220 = FILL_AREA_STYLE_COLOUR ( '', #242 ) ;
#221 = CARTESIAN_POINT ( 'NONE',  ( 116.9705627484771400, 0.0000000000000000000, 0.0000000000000000000 ) ) ;
#222 = LINE ( 'NONE', #253, #252 ) ;
#223 = PRESENTATION_STYLE_ASSIGNMENT (( #260 ) ) ;
#224 = CARTESIAN_POINT ( 'NONE',  ( 116.9705627484771400, 4.898587196589412800E-016, -4.000000000000000000 ) ) ;
#225 =( GEOMETRIC_REPRESENTATION_CONTEXT ( 3 ) GLOBAL_UNCERTAINTY_ASSIGNED_CONTEXT ( ( #277 ) ) GLOBAL_UNIT_ASSIGNED_CONTEXT ( ( #246, #247, #238 ) ) REPRESENTATION_CONTEXT ( 'NONE', 'WORKASPACE' ) );
#226 = CIRCLE ( 'NONE', #269, 4.000000000000000000 ) ;
#227 = FILL_AREA_STYLE ('',( #220 ) ) ;
#228 = CARTESIAN_POINT ( 'NONE',  ( 116.9705627484771400, 0.0000000000000000000, 0.0000000000000000000 ) ) ;
#229 = CYLINDRICAL_SURFACE ( 'NONE', #248, 4.000000000000000000 ) ;
#230 = CARTESIAN_POINT ( 'NONE',  ( 100.0000000000000000, 7.347880794884120700E-016, -6.000000000000000900 ) ) ;
#231 = FACE_OUTER_BOUND ( 'NONE', #31, .T. ) ;
#232 = DIRECTION ( 'NONE',  ( -1.000000000000000000, -0.0000000000000000000, -0.0000000000000000000 ) ) ;
#233 = VECTOR ( 'NONE', #232, 1000.000000000000000 ) ;
#234 = LINE ( 'NONE', #224, #233 ) ;
#235 = CARTESIAN_POINT ( 'NONE',  ( 0.0000000000000000000, 4.898587196589412800E-016, -4.000000000000000000 ) ) ;
#236 = SURFACE_STYLE_FILL_AREA ( #227 ) ;
#237 = DIRECTION ( 'NONE',  ( 1.000000000000000000, 0.0000000000000000000, 0.0000000000000000000 ) ) ;
#238 =( NAMED_UNIT ( * ) SI_UNIT ( $, .STERADIAN. ) SOLID_ANGLE_UNIT ( ) );
#239 = DIRECTION ( 'NONE',  ( 0.0000000000000000000, 0.0000000000000000000, 1.000000000000000000 ) ) ;
#240 = DIRECTION ( 'NONE',  ( -1.000000000000000000, -0.0000000000000000000, -0.0000000000000000000 ) ) ;
#241 =( GEOMETRIC_REPRESENTATION_CONTEXT ( 3 ) GLOBAL_UNCERTAINTY_ASSIGNED_CONTEXT ( ( #244 ) ) GLOBAL_UNIT_ASSIGNED_CONTEXT ( ( #262, #278, #245 ) ) REPRESENTATION_CONTEXT ( 'NONE', 'WORKASPACE' ) );
#242 = COLOUR_RGB ( '',0.2470588235294117800, 0.6470588235294118000, 1.000000000000000000 ) ;
#243 = DIRECTION ( 'NONE',  ( 0.0000000000000000000, 0.0000000000000000000, -1.000000000000000000 ) ) ;
#244 = UNCERTAINTY_MEASURE_WITH_UNIT (LENGTH_MEASURE( 1.000000000000000100E-005 ), #262, 'distance_accuracy_value', 'NONE');
#245 =( NAMED_UNIT ( * ) SI_UNIT ( $, .STERADIAN. ) SOLID_ANGLE_UNIT ( ) );
#246 =( LENGTH_UNIT ( ) NAMED_UNIT ( * ) SI_UNIT ( .MILLI., .METRE. ) );
#247 =( NAMED_UNIT ( * ) PLANE_ANGLE_UNIT ( ) SI_UNIT ( $, .RADIAN. ) );
#248 = AXIS2_PLACEMENT_3D ( 'NONE', #221, #259, #258 ) ;
#249 = FILL_AREA_STYLE ('',( #270 ) ) ;
#250 = CYLINDRICAL_SURFACE ( 'NONE', #279, 6.000000000000000900 ) ;
#251 = DIRECTION ( 'NONE',  ( -1.000000000000000000, -0.0000000000000000000, -0.0000000000000000000 ) ) ;
#252 = VECTOR ( 'NONE', #251, 1000.000000000000000 ) ;
#253 = CARTESIAN_POINT ( 'NONE',  ( 116.9705627484771400, 7.347880794884120700E-016, -6.000000000000000900 ) ) ;
#254 = SURFACE_STYLE_FILL_AREA ( #249 ) ;
#255 = COLOUR_RGB ( '',0.2470588235294117800, 0.6470588235294118000, 1.000000000000000000 ) ;
#256 = PRESENTATION_LAYER_ASSIGNMENT (  '', '', ( #218 ) ) ;
#257 = CARTESIAN_POINT ( 'NONE',  ( 100.0000000000000000, 4.898587196589412800E-016, -4.000000000000000000 ) ) ;
#258 = DIRECTION ( 'NONE',  ( 0.0000000000000000000, 0.0000000000000000000, 1.000000000000000000 ) ) ;
#259 = DIRECTION ( 'NONE',  ( -1.000000000000000000, -0.0000000000000000000, -0.0000000000000000000 ) ) ;
#260 = SURFACE_STYLE_USAGE ( .BOTH. , #281 ) ;
#261 = MECHANICAL_DESIGN_GEOMETRIC_PRESENTATION_REPRESENTATION (  '', ( #218 ), #225 ) ;
#262 =( LENGTH_UNIT ( ) NAMED_UNIT ( * ) SI_UNIT ( .MILLI., .METRE. ) );
#263 = MECHANICAL_DESIGN_GEOMETRIC_PRESENTATION_REPRESENTATION (  '', ( #265 ), #241 ) ;
#264 = PRESENTATION_LAYER_ASSIGNMENT (  '', '', ( #265 ) ) ;
#265 = STYLED_ITEM ( 'NONE', ( #266 ), #76 ) ;
#266 = PRESENTATION_STYLE_ASSIGNMENT (( #267 ) ) ;
#267 = SURFACE_STYLE_USAGE ( .BOTH. , #268 ) ;
#268 = SURFACE_SIDE_STYLE ('',( #254 ) ) ;
#269 = AXIS2_PLACEMENT_3D ( 'NONE', #217, #237, #243 ) ;
#270 = FILL_AREA_STYLE_COLOUR ( '', #255 ) ;
#271 = CARTESIAN_POINT ( 'NONE',  ( 100.0000000000000000, 0.0000000000000000000, 6.000000000000000900 ) ) ;
#272 = DIRECTION ( 'NONE',  ( 0.0000000000000000000, 0.0000000000000000000, -1.000000000000000000 ) ) ;
#273 = DIRECTION ( 'NONE',  ( 1.000000000000000000, 0.0000000000000000000, 0.0000000000000000000 ) ) ;
#274 = CARTESIAN_POINT ( 'NONE',  ( 100.0000000000000000, 0.0000000000000000000, 0.0000000000000000000 ) ) ;
#275 = AXIS2_PLACEMENT_3D ( 'NONE', #274, #273, #272 ) ;
#276 = CARTESIAN_POINT ( 'NONE',  ( 100.0000000000000000, 0.0000000000000000000, 4.000000000000000000 ) ) ;
#277 = UNCERTAINTY_MEASURE_WITH_UNIT (LENGTH_MEASURE( 1.000000000000000100E-005 ), #246, 'distance_accuracy_value', 'NONE');
#278 =( NAMED_UNIT ( * ) PLANE_ANGLE_UNIT ( ) SI_UNIT ( $, .RADIAN. ) );
#279 = AXIS2_PLACEMENT_3D ( 'NONE', #228, #240, #239 ) ;
#280 = CIRCLE ( 'NONE', #275, 6.000000000000000900 ) ;
#281 = SURFACE_SIDE_STYLE ('',( #236 ) ) ;
#282 = PRODUCT_CONTEXT ( 'NONE', #329, 'mechanical' ) ;
#283 = APPLICATION_PROTOCOL_DEFINITION ( 'draft international standard', 'automotive_design', 1998, #329 ) ;
#284 = AXIS2_PLACEMENT_3D ( 'NONE', #317, #316, #315 ) ;
#285 = ADVANCED_BREP_SHAPE_REPRESENTATION ( '', ( #79, #284 ), #332 ) ;
#286 = AXIS2_PLACEMENT_3D ( 'NONE', #327, #326, #325 ) ;
#287 = SHAPE_REPRESENTATION ( 'TU1208BU-20.step', ( #292, #324 ), #290 ) ;
#288 = CARTESIAN_POINT ( 'NONE',  ( 0.0000000000000000000, 0.0000000000000000000, 0.0000000000000000000 ) ) ;
#289 = PRODUCT_CONTEXT ( 'NONE', #339, 'mechanical' ) ;
#290 =( GEOMETRIC_REPRESENTATION_CONTEXT ( 3 ) GLOBAL_UNCERTAINTY_ASSIGNED_CONTEXT ( ( #310 ) ) GLOBAL_UNIT_ASSIGNED_CONTEXT ( ( #320, #312, #311 ) ) REPRESENTATION_CONTEXT ( 'NONE', 'WORKASPACE' ) );
#291 =( NAMED_UNIT ( * ) PLANE_ANGLE_UNIT ( ) SI_UNIT ( $, .RADIAN. ) );
#292 = AXIS2_PLACEMENT_3D ( 'NONE', #288, #340, #335 ) ;
#293 = SHAPE_REPRESENTATION_RELATIONSHIP ( 'NONE' , 'NONE' ,  #294, #285 ) ;
#294 = SHAPE_REPRESENTATION ( 'TU1208BU-20.step_TU3076 Tube_1208BU', ( #284 ), #332 ) ;
#295 = UNCERTAINTY_MEASURE_WITH_UNIT (LENGTH_MEASURE( 1.000000000000000100E-005 ), #328, 'distance_accuracy_value', 'NONE');
#296 =( LENGTH_UNIT ( ) NAMED_UNIT ( * ) SI_UNIT ( .MILLI., .METRE. ) );
#297 = MECHANICAL_DESIGN_GEOMETRIC_PRESENTATION_REPRESENTATION (  '', ( #299 ), #341 ) ;
#298 = PRESENTATION_LAYER_ASSIGNMENT (  '', '', ( #299 ) ) ;
#299 = STYLED_ITEM ( 'NONE', ( #300 ), #285 ) ;
#300 = PRESENTATION_STYLE_ASSIGNMENT (( #301 ) ) ;
#301 = SURFACE_STYLE_USAGE ( .BOTH. , #302 ) ;
#302 = SURFACE_SIDE_STYLE ('',( #336 ) ) ;
#303 = PRODUCT_RELATED_PRODUCT_CATEGORY ( 'part', '', ( #309 ) ) ;
#304 = PRODUCT_DEFINITION_FORMATION_WITH_SPECIFIED_SOURCE ( 'ANY', '', #309, .NOT_KNOWN. ) ;
#305 = PRODUCT_DEFINITION ( 'UNKNOWN', '', #304, #306 ) ;
#306 = PRODUCT_DEFINITION_CONTEXT ( 'detailed design', #308, 'design' ) ;
#307 = APPLICATION_PROTOCOL_DEFINITION ( 'draft international standard', 'automotive_design', 1998, #308 ) ;
#308 = APPLICATION_CONTEXT ( 'automotive_design' ) ;
#309 = PRODUCT ( 'TU1208BU-20.step', 'TU1208BU-20.step', '', ( #289 ) ) ;
#310 = UNCERTAINTY_MEASURE_WITH_UNIT (LENGTH_MEASURE( 1.000000000000000100E-005 ), #320, 'distance_accuracy_value', 'NONE');
#311 =( NAMED_UNIT ( * ) SI_UNIT ( $, .STERADIAN. ) SOLID_ANGLE_UNIT ( ) );
#312 =( NAMED_UNIT ( * ) PLANE_ANGLE_UNIT ( ) SI_UNIT ( $, .RADIAN. ) );
#313 = FILL_AREA_STYLE_COLOUR ( '', #314 ) ;
#314 = COLOUR_RGB ( '',0.2470588235294117800, 0.6470588235294118000, 1.000000000000000000 ) ;
#315 = DIRECTION ( 'NONE',  ( 1.000000000000000000, 0.0000000000000000000, 0.0000000000000000000 ) ) ;
#316 = DIRECTION ( 'NONE',  ( 0.0000000000000000000, 0.0000000000000000000, 1.000000000000000000 ) ) ;
#317 = CARTESIAN_POINT ( 'NONE',  ( 0.0000000000000000000, 0.0000000000000000000, 0.0000000000000000000 ) ) ;
#318 = UNCERTAINTY_MEASURE_WITH_UNIT (LENGTH_MEASURE( 1.000000000000000100E-005 ), #296, 'distance_accuracy_value', 'NONE');
#319 =( NAMED_UNIT ( * ) SI_UNIT ( $, .STERADIAN. ) SOLID_ANGLE_UNIT ( ) );
#320 =( LENGTH_UNIT ( ) NAMED_UNIT ( * ) SI_UNIT ( .MILLI., .METRE. ) );
#321 = DIRECTION ( 'NONE',  ( 1.000000000000000000, 0.0000000000000000000, 0.0000000000000000000 ) ) ;
#322 = DIRECTION ( 'NONE',  ( 0.0000000000000000000, 0.0000000000000000000, 1.000000000000000000 ) ) ;
#323 = CARTESIAN_POINT ( 'NONE',  ( 0.0000000000000000000, 0.0000000000000000000, 0.0000000000000000000 ) ) ;
#324 = AXIS2_PLACEMENT_3D ( 'NONE', #323, #322, #321 ) ;
#325 = DIRECTION ( 'NONE',  ( 1.000000000000000000, 0.0000000000000000000, 0.0000000000000000000 ) ) ;
#326 = DIRECTION ( 'NONE',  ( 0.0000000000000000000, 0.0000000000000000000, 1.000000000000000000 ) ) ;
#327 = CARTESIAN_POINT ( 'NONE',  ( 0.0000000000000000000, 0.0000000000000000000, 0.0000000000000000000 ) ) ;
#328 =( LENGTH_UNIT ( ) NAMED_UNIT ( * ) SI_UNIT ( .MILLI., .METRE. ) );
#329 = APPLICATION_CONTEXT ( 'automotive_design' ) ;
#330 = PRODUCT_DEFINITION_SHAPE ( 'NONE', 'NONE',  #305 ) ;
#331 =( NAMED_UNIT ( * ) PLANE_ANGLE_UNIT ( ) SI_UNIT ( $, .RADIAN. ) );
#332 =( GEOMETRIC_REPRESENTATION_CONTEXT ( 3 ) GLOBAL_UNCERTAINTY_ASSIGNED_CONTEXT ( ( #295 ) ) GLOBAL_UNIT_ASSIGNED_CONTEXT ( ( #328, #331, #333 ) ) REPRESENTATION_CONTEXT ( 'NONE', 'WORKASPACE' ) );
#333 =( NAMED_UNIT ( * ) SI_UNIT ( $, .STERADIAN. ) SOLID_ANGLE_UNIT ( ) );
#334 = SHAPE_DEFINITION_REPRESENTATION ( #330, #287 ) ;
#335 = DIRECTION ( 'NONE',  ( 1.000000000000000000, 0.0000000000000000000, 0.0000000000000000000 ) ) ;
#336 = SURFACE_STYLE_FILL_AREA ( #337 ) ;
#337 = FILL_AREA_STYLE ('',( #313 ) ) ;
#338 = APPLICATION_PROTOCOL_DEFINITION ( 'draft international standard', 'automotive_design', 1998, #339 ) ;
#339 = APPLICATION_CONTEXT ( 'automotive_design' ) ;
#340 = DIRECTION ( 'NONE',  ( 0.0000000000000000000, 0.0000000000000000000, 1.000000000000000000 ) ) ;
#341 =( GEOMETRIC_REPRESENTATION_CONTEXT ( 3 ) GLOBAL_UNCERTAINTY_ASSIGNED_CONTEXT ( ( #318 ) ) GLOBAL_UNIT_ASSIGNED_CONTEXT ( ( #296, #291, #319 ) ) REPRESENTATION_CONTEXT ( 'NONE', 'WORKASPACE' ) );
ENDSEC;
END-ISO-10303-21;
