ISO-10303-21;
HEADER;
FILE_DESCRIPTION (( 'STEP AP214' ),
    '1' );
FILE_NAME ('TU1208C-20.step.step',
    '2011-10-09T02:34:11',
    ( 'SysAdmin' ),
    ( 'SolidWorks' ),
    'SwSTEP 2.0',
    'SolidWorks 2012',
    '' );
FILE_SCHEMA (( 'AUTOMOTIVE_DESIGN' ));
ENDSEC;

DATA;
#1 = ORIENTED_EDGE ( 'NONE', *, *, #15, .T. ) ;
#2 = ORIENTED_EDGE ( 'NONE', *, *, #19, .T. ) ;
#3 = DIRECTION ( 'NONE',  ( 0.0000000000000000000, 0.0000000000000000000, -1.000000000000000000 ) ) ;
#4 = EDGE_LOOP ( 'NONE', ( #23, #20, #25, #32 ) ) ;
#5 = EDGE_CURVE ( 'NONE', #21, #16, #100, .T. ) ;
#6 = ORIENTED_EDGE ( 'NONE', *, *, #13, .F. ) ;
#7 = EDGE_LOOP ( 'NONE', ( #103, #73, #102, #74 ) ) ;
#8 = EDGE_LOOP ( 'NONE', ( #34, #36 ) ) ;
#9 = CLOSED_SHELL ( 'NONE', ( #67, #17, #58, #35, #57, #59 ) ) ;
#10 = EDGE_LOOP ( 'NONE', ( #2, #1 ) ) ;
#11 = ORIENTED_EDGE ( 'NONE', *, *, #101, .F. ) ;
#12 = ORIENTED_EDGE ( 'NONE', *, *, #60, .F. ) ;
#13 = EDGE_CURVE ( 'NONE', #28, #16, #63, .T. ) ;
#14 = EDGE_CURVE ( 'NONE', #66, #21, #86, .T. ) ;
#15 = EDGE_CURVE ( 'NONE', #66, #28, #98, .T. ) ;
#16 = VERTEX_POINT ( 'NONE', #87 ) ;
#17 = ADVANCED_FACE ( 'NONE', ( #76 ), #64, .T. ) ;
#18 = ORIENTED_EDGE ( 'NONE', *, *, #14, .T. ) ;
#19 = EDGE_CURVE ( 'NONE', #28, #66, #151, .T. ) ;
#20 = ORIENTED_EDGE ( 'NONE', *, *, #19, .F. ) ;
#21 = VERTEX_POINT ( 'NONE', #175 ) ;
#22 = EDGE_CURVE ( 'NONE', #16, #21, #176, .T. ) ;
#23 = ORIENTED_EDGE ( 'NONE', *, *, #14, .F. ) ;
#24 = ORIENTED_EDGE ( 'NONE', *, *, #29, .T. ) ;
#25 = ORIENTED_EDGE ( 'NONE', *, *, #13, .T. ) ;
#26 = ORIENTED_EDGE ( 'NONE', *, *, #5, .T. ) ;
#27 = EDGE_CURVE ( 'NONE', #61, #54, #114, .T. ) ;
#28 = VERTEX_POINT ( 'NONE', #112 ) ;
#29 = EDGE_CURVE ( 'NONE', #65, #54, #116, .T. ) ;
#30 = EDGE_LOOP ( 'NONE', ( #70, #18, #26, #6 ) ) ;
#31 = EDGE_LOOP ( 'NONE', ( #56, #72, #71, #55 ) ) ;
#32 = ORIENTED_EDGE ( 'NONE', *, *, #22, .T. ) ;
#33 = ORIENTED_EDGE ( 'NONE', *, *, #53, .T. ) ;
#34 = ORIENTED_EDGE ( 'NONE', *, *, #22, .F. ) ;
#35 = ADVANCED_FACE ( 'NONE', ( #203, #216 ), #121, .F. ) ;
#36 = ORIENTED_EDGE ( 'NONE', *, *, #5, .F. ) ;
#37 = EDGE_LOOP ( 'NONE', ( #33, #24 ) ) ;
#38 = EDGE_LOOP ( 'NONE', ( #12, #11 ) ) ;
#39 = COLOUR_RGB ( '',0.0000000000000000000, 0.5843137254901961100, 0.9058823529411764700 ) ;
#40 = CARTESIAN_POINT ( 'NONE',  ( 100.0000000000000000, 0.0000000000000000000, 4.000000000000000000 ) ) ;
#41 =( GEOMETRIC_REPRESENTATION_CONTEXT ( 3 ) GLOBAL_UNCERTAINTY_ASSIGNED_CONTEXT ( ( #42 ) ) GLOBAL_UNIT_ASSIGNED_CONTEXT ( ( #45, #44, #43 ) ) REPRESENTATION_CONTEXT ( 'NONE', 'WORKASPACE' ) );
#42 = UNCERTAINTY_MEASURE_WITH_UNIT (LENGTH_MEASURE( 1.000000000000000100E-005 ), #45, 'distance_accuracy_value', 'NONE');
#43 =( NAMED_UNIT ( * ) SI_UNIT ( $, .STERADIAN. ) SOLID_ANGLE_UNIT ( ) );
#44 =( NAMED_UNIT ( * ) PLANE_ANGLE_UNIT ( ) SI_UNIT ( $, .RADIAN. ) );
#45 =( LENGTH_UNIT ( ) NAMED_UNIT ( * ) SI_UNIT ( .MILLI., .METRE. ) );
#46 = MECHANICAL_DESIGN_GEOMETRIC_PRESENTATION_REPRESENTATION (  '', ( #48 ), #41 ) ;
#47 = PRESENTATION_LAYER_ASSIGNMENT (  '', '', ( #48 ) ) ;
#48 = STYLED_ITEM ( 'NONE', ( #49 ), #17 ) ;
#49 = PRESENTATION_STYLE_ASSIGNMENT (( #50 ) ) ;
#50 = SURFACE_STYLE_USAGE ( .BOTH. , #51 ) ;
#51 = SURFACE_SIDE_STYLE ('',( #75 ) ) ;
#52 = DIRECTION ( 'NONE',  ( 0.0000000000000000000, 0.0000000000000000000, 1.000000000000000000 ) ) ;
#53 = EDGE_CURVE ( 'NONE', #54, #65, #206, .T. ) ;
#54 = VERTEX_POINT ( 'NONE', #205 ) ;
#55 = ORIENTED_EDGE ( 'NONE', *, *, #27, .F. ) ;
#56 = ORIENTED_EDGE ( 'NONE', *, *, #60, .T. ) ;
#57 = ADVANCED_FACE ( 'NONE', ( #214 ), #179, .F. ) ;
#58 = ADVANCED_FACE ( 'NONE', ( #122 ), #192, .T. ) ;
#59 = ADVANCED_FACE ( 'NONE', ( #191, #144 ), #145, .T. ) ;
#60 = EDGE_CURVE ( 'NONE', #61, #68, #160, .T. ) ;
#61 = VERTEX_POINT ( 'NONE', #40 ) ;
#62 = MANIFOLD_SOLID_BREP ( 'Tube', #9 ) ;
#63 = LINE ( 'NONE', #91, #90 ) ;
#64 = CYLINDRICAL_SURFACE ( 'NONE', #92, 6.000000000000000900 ) ;
#65 = VERTEX_POINT ( 'NONE', #257 ) ;
#66 = VERTEX_POINT ( 'NONE', #255 ) ;
#67 = ADVANCED_FACE ( 'NONE', ( #254 ), #253, .F. ) ;
#68 = VERTEX_POINT ( 'NONE', #323 ) ;
#69 = EDGE_CURVE ( 'NONE', #68, #65, #322, .T. ) ;
#70 = ORIENTED_EDGE ( 'NONE', *, *, #15, .F. ) ;
#71 = ORIENTED_EDGE ( 'NONE', *, *, #53, .F. ) ;
#72 = ORIENTED_EDGE ( 'NONE', *, *, #69, .T. ) ;
#73 = ORIENTED_EDGE ( 'NONE', *, *, #101, .T. ) ;
#74 = ORIENTED_EDGE ( 'NONE', *, *, #29, .F. ) ;
#75 = SURFACE_STYLE_FILL_AREA ( #81 ) ;
#76 = FACE_OUTER_BOUND ( 'NONE', #30, .T. ) ;
#77 = FILL_AREA_STYLE_COLOUR ( '', #88 ) ;
#78 = DIRECTION ( 'NONE',  ( 0.0000000000000000000, 0.0000000000000000000, -1.000000000000000000 ) ) ;
#79 = DIRECTION ( 'NONE',  ( 1.000000000000000000, 0.0000000000000000000, 0.0000000000000000000 ) ) ;
#80 = CARTESIAN_POINT ( 'NONE',  ( 116.9705627484771400, 0.0000000000000000000, 0.0000000000000000000 ) ) ;
#81 = FILL_AREA_STYLE ('',( #77 ) ) ;
#82 = DIRECTION ( 'NONE',  ( -1.000000000000000000, -0.0000000000000000000, -0.0000000000000000000 ) ) ;
#83 = DIRECTION ( 'NONE',  ( -1.000000000000000000, -0.0000000000000000000, -0.0000000000000000000 ) ) ;
#84 = VECTOR ( 'NONE', #83, 1000.000000000000000 ) ;
#85 = CARTESIAN_POINT ( 'NONE',  ( 116.9705627484771400, 7.347880794884120700E-016, -6.000000000000000900 ) ) ;
#86 = LINE ( 'NONE', #85, #84 ) ;
#87 = CARTESIAN_POINT ( 'NONE',  ( 0.0000000000000000000, 0.0000000000000000000, 6.000000000000000900 ) ) ;
#88 = COLOUR_RGB ( '',0.9686274509803921600, 1.000000000000000000, 0.9803921568627450600 ) ;
#89 = DIRECTION ( 'NONE',  ( -1.000000000000000000, -0.0000000000000000000, -0.0000000000000000000 ) ) ;
#90 = VECTOR ( 'NONE', #89, 1000.000000000000000 ) ;
#91 = CARTESIAN_POINT ( 'NONE',  ( 116.9705627484771400, 0.0000000000000000000, 6.000000000000000900 ) ) ;
#92 = AXIS2_PLACEMENT_3D ( 'NONE', #80, #82, #52 ) ;
#93 = AXIS2_PLACEMENT_3D ( 'NONE', #99, #79, #78 ) ;
#94 = DIRECTION ( 'NONE',  ( 0.0000000000000000000, 0.0000000000000000000, -1.000000000000000000 ) ) ;
#95 = DIRECTION ( 'NONE',  ( 1.000000000000000000, 0.0000000000000000000, 0.0000000000000000000 ) ) ;
#96 = CARTESIAN_POINT ( 'NONE',  ( 0.0000000000000000000, 0.0000000000000000000, 0.0000000000000000000 ) ) ;
#97 = AXIS2_PLACEMENT_3D ( 'NONE', #96, #95, #94 ) ;
#98 = CIRCLE ( 'NONE', #93, 6.000000000000000900 ) ;
#99 = CARTESIAN_POINT ( 'NONE',  ( 100.0000000000000000, 0.0000000000000000000, 0.0000000000000000000 ) ) ;
#100 = CIRCLE ( 'NONE', #97, 6.000000000000000900 ) ;
#101 = EDGE_CURVE ( 'NONE', #68, #61, #292, .T. ) ;
#102 = ORIENTED_EDGE ( 'NONE', *, *, #27, .T. ) ;
#103 = ORIENTED_EDGE ( 'NONE', *, *, #69, .F. ) ;
#104 =( NAMED_UNIT ( * ) SI_UNIT ( $, .STERADIAN. ) SOLID_ANGLE_UNIT ( ) );
#105 =( NAMED_UNIT ( * ) PLANE_ANGLE_UNIT ( ) SI_UNIT ( $, .RADIAN. ) );
#106 = DIRECTION ( 'NONE',  ( 0.0000000000000000000, 0.0000000000000000000, -1.000000000000000000 ) ) ;
#107 = DIRECTION ( 'NONE',  ( 1.000000000000000000, 0.0000000000000000000, 0.0000000000000000000 ) ) ;
#108 = CARTESIAN_POINT ( 'NONE',  ( 0.0000000000000000000, 0.0000000000000000000, 0.0000000000000000000 ) ) ;
#109 = COLOUR_RGB ( '',0.9686274509803921600, 1.000000000000000000, 0.9803921568627450600 ) ;
#110 = DIRECTION ( 'NONE',  ( 0.0000000000000000000, 0.0000000000000000000, -1.000000000000000000 ) ) ;
#111 = DIRECTION ( 'NONE',  ( 1.000000000000000000, 0.0000000000000000000, 0.0000000000000000000 ) ) ;
#112 = CARTESIAN_POINT ( 'NONE',  ( 100.0000000000000000, 0.0000000000000000000, 6.000000000000000900 ) ) ;
#113 = FILL_AREA_STYLE_COLOUR ( '', #109 ) ;
#114 = LINE ( 'NONE', #201, #202 ) ;
#115 = FILL_AREA_STYLE ('',( #215 ) ) ;
#116 = CIRCLE ( 'NONE', #150, 4.000000000000000000 ) ;
#117 = DIRECTION ( 'NONE',  ( 1.000000000000000000, 0.0000000000000000000, 0.0000000000000000000 ) ) ;
#118 = CARTESIAN_POINT ( 'NONE',  ( 0.0000000000000000000, 0.0000000000000000000, 0.0000000000000000000 ) ) ;
#119 = COLOUR_RGB ( '',0.9686274509803921600, 1.000000000000000000, 0.9803921568627450600 ) ;
#120 = AXIS2_PLACEMENT_3D ( 'NONE', #204, #111, #110 ) ;
#121 = PLANE ( 'NONE',  #120 ) ;
#122 = FACE_OUTER_BOUND ( 'NONE', #4, .T. ) ;
#123 =( GEOMETRIC_REPRESENTATION_CONTEXT ( 3 ) GLOBAL_UNCERTAINTY_ASSIGNED_CONTEXT ( ( #124 ) ) GLOBAL_UNIT_ASSIGNED_CONTEXT ( ( #168, #105, #104 ) ) REPRESENTATION_CONTEXT ( 'NONE', 'WORKASPACE' ) );
#124 = UNCERTAINTY_MEASURE_WITH_UNIT (LENGTH_MEASURE( 1.000000000000000100E-005 ), #168, 'distance_accuracy_value', 'NONE');
#125 =( LENGTH_UNIT ( ) NAMED_UNIT ( * ) SI_UNIT ( .MILLI., .METRE. ) );
#126 = MECHANICAL_DESIGN_GEOMETRIC_PRESENTATION_REPRESENTATION (  '', ( #128 ), #153 ) ;
#127 = PRESENTATION_LAYER_ASSIGNMENT (  '', '', ( #128 ) ) ;
#128 = STYLED_ITEM ( 'NONE', ( #129 ), #59 ) ;
#129 = PRESENTATION_STYLE_ASSIGNMENT (( #130 ) ) ;
#130 = SURFACE_STYLE_USAGE ( .BOTH. , #131 ) ;
#131 = SURFACE_SIDE_STYLE ('',( #132 ) ) ;
#132 = SURFACE_STYLE_FILL_AREA ( #133 ) ;
#133 = FILL_AREA_STYLE ('',( #140 ) ) ;
#134 = PRESENTATION_LAYER_ASSIGNMENT (  '', '', ( #135 ) ) ;
#135 = STYLED_ITEM ( 'NONE', ( #136 ), #62 ) ;
#136 = PRESENTATION_STYLE_ASSIGNMENT (( #162 ) ) ;
#137 = DIRECTION ( 'NONE',  ( 0.0000000000000000000, 0.0000000000000000000, 1.000000000000000000 ) ) ;
#138 = DIRECTION ( 'NONE',  ( -1.000000000000000000, -0.0000000000000000000, -0.0000000000000000000 ) ) ;
#139 = CARTESIAN_POINT ( 'NONE',  ( 116.9705627484771400, 0.0000000000000000000, 0.0000000000000000000 ) ) ;
#140 = FILL_AREA_STYLE_COLOUR ( '', #141 ) ;
#141 = COLOUR_RGB ( '',0.9686274509803921600, 1.000000000000000000, 0.9803921568627450600 ) ;
#142 = SURFACE_SIDE_STYLE ('',( #152 ) ) ;
#143 = AXIS2_PLACEMENT_3D ( 'NONE', #139, #138, #137 ) ;
#144 = FACE_OUTER_BOUND ( 'NONE', #10, .T. ) ;
#145 = PLANE ( 'NONE',  #189 ) ;
#146 =( GEOMETRIC_REPRESENTATION_CONTEXT ( 3 ) GLOBAL_UNCERTAINTY_ASSIGNED_CONTEXT ( ( #147 ) ) GLOBAL_UNIT_ASSIGNED_CONTEXT ( ( #181, #180, #148 ) ) REPRESENTATION_CONTEXT ( 'NONE', 'WORKASPACE' ) );
#147 = UNCERTAINTY_MEASURE_WITH_UNIT (LENGTH_MEASURE( 1.000000000000000100E-005 ), #181, 'distance_accuracy_value', 'NONE');
#148 =( NAMED_UNIT ( * ) SI_UNIT ( $, .STERADIAN. ) SOLID_ANGLE_UNIT ( ) );
#149 = AXIS2_PLACEMENT_3D ( 'NONE', #178, #177, #229 ) ;
#150 = AXIS2_PLACEMENT_3D ( 'NONE', #118, #117, #217 ) ;
#151 = CIRCLE ( 'NONE', #174, 6.000000000000000900 ) ;
#152 = SURFACE_STYLE_FILL_AREA ( #224 ) ;
#153 =( GEOMETRIC_REPRESENTATION_CONTEXT ( 3 ) GLOBAL_UNCERTAINTY_ASSIGNED_CONTEXT ( ( #154 ) ) GLOBAL_UNIT_ASSIGNED_CONTEXT ( ( #125, #156, #155 ) ) REPRESENTATION_CONTEXT ( 'NONE', 'WORKASPACE' ) );
#154 = UNCERTAINTY_MEASURE_WITH_UNIT (LENGTH_MEASURE( 1.000000000000000100E-005 ), #125, 'distance_accuracy_value', 'NONE');
#155 =( NAMED_UNIT ( * ) SI_UNIT ( $, .STERADIAN. ) SOLID_ANGLE_UNIT ( ) );
#156 =( NAMED_UNIT ( * ) PLANE_ANGLE_UNIT ( ) SI_UNIT ( $, .RADIAN. ) );
#157 = DIRECTION ( 'NONE',  ( 0.0000000000000000000, 0.0000000000000000000, -1.000000000000000000 ) ) ;
#158 = DIRECTION ( 'NONE',  ( 1.000000000000000000, 0.0000000000000000000, 0.0000000000000000000 ) ) ;
#159 = CARTESIAN_POINT ( 'NONE',  ( 100.0000000000000000, 0.0000000000000000000, 0.0000000000000000000 ) ) ;
#160 = CIRCLE ( 'NONE', #167, 4.000000000000000000 ) ;
#161 = MECHANICAL_DESIGN_GEOMETRIC_PRESENTATION_REPRESENTATION (  '', ( #135 ), #260 ) ;
#162 = SURFACE_STYLE_USAGE ( .BOTH. , #142 ) ;
#163 = DIRECTION ( 'NONE',  ( 0.0000000000000000000, 0.0000000000000000000, -1.000000000000000000 ) ) ;
#164 = DIRECTION ( 'NONE',  ( 1.000000000000000000, 0.0000000000000000000, 0.0000000000000000000 ) ) ;
#165 = CARTESIAN_POINT ( 'NONE',  ( 100.0000000000000000, 0.0000000000000000000, 0.0000000000000000000 ) ) ;
#166 = FILL_AREA_STYLE_COLOUR ( '', #39 ) ;
#167 = AXIS2_PLACEMENT_3D ( 'NONE', #159, #158, #3 ) ;
#168 =( LENGTH_UNIT ( ) NAMED_UNIT ( * ) SI_UNIT ( .MILLI., .METRE. ) );
#169 = MECHANICAL_DESIGN_GEOMETRIC_PRESENTATION_REPRESENTATION (  '', ( #171 ), #123 ) ;
#170 = PRESENTATION_LAYER_ASSIGNMENT (  '', '', ( #171 ) ) ;
#171 = STYLED_ITEM ( 'NONE', ( #172 ), #35 ) ;
#172 = PRESENTATION_STYLE_ASSIGNMENT (( #173 ) ) ;
#173 = SURFACE_STYLE_USAGE ( .BOTH. , #211 ) ;
#174 = AXIS2_PLACEMENT_3D ( 'NONE', #200, #199, #157 ) ;
#175 = CARTESIAN_POINT ( 'NONE',  ( 0.0000000000000000000, 7.347880794884120700E-016, -6.000000000000000900 ) ) ;
#176 = CIRCLE ( 'NONE', #149, 6.000000000000000900 ) ;
#177 = DIRECTION ( 'NONE',  ( 1.000000000000000000, 0.0000000000000000000, 0.0000000000000000000 ) ) ;
#178 = CARTESIAN_POINT ( 'NONE',  ( 0.0000000000000000000, 0.0000000000000000000, 0.0000000000000000000 ) ) ;
#179 = CYLINDRICAL_SURFACE ( 'NONE', #227, 4.000000000000000000 ) ;
#180 =( NAMED_UNIT ( * ) PLANE_ANGLE_UNIT ( ) SI_UNIT ( $, .RADIAN. ) );
#181 =( LENGTH_UNIT ( ) NAMED_UNIT ( * ) SI_UNIT ( .MILLI., .METRE. ) );
#182 = MECHANICAL_DESIGN_GEOMETRIC_PRESENTATION_REPRESENTATION (  '', ( #184 ), #146 ) ;
#183 = PRESENTATION_LAYER_ASSIGNMENT (  '', '', ( #184 ) ) ;
#184 = STYLED_ITEM ( 'NONE', ( #185 ), #58 ) ;
#185 = PRESENTATION_STYLE_ASSIGNMENT (( #186 ) ) ;
#186 = SURFACE_STYLE_USAGE ( .BOTH. , #187 ) ;
#187 = SURFACE_SIDE_STYLE ('',( #188 ) ) ;
#188 = SURFACE_STYLE_FILL_AREA ( #193 ) ;
#189 = AXIS2_PLACEMENT_3D ( 'NONE', #165, #164, #163 ) ;
#190 = DIRECTION ( 'NONE',  ( 0.0000000000000000000, 0.0000000000000000000, 1.000000000000000000 ) ) ;
#191 = FACE_BOUND ( 'NONE', #38, .T. ) ;
#192 = CYLINDRICAL_SURFACE ( 'NONE', #143, 6.000000000000000900 ) ;
#193 = FILL_AREA_STYLE ('',( #207 ) ) ;
#194 = CARTESIAN_POINT ( 'NONE',  ( 116.9705627484771400, 0.0000000000000000000, 0.0000000000000000000 ) ) ;
#195 = DIRECTION ( 'NONE',  ( -1.000000000000000000, -0.0000000000000000000, -0.0000000000000000000 ) ) ;
#196 =( GEOMETRIC_REPRESENTATION_CONTEXT ( 3 ) GLOBAL_UNCERTAINTY_ASSIGNED_CONTEXT ( ( #197 ) ) GLOBAL_UNIT_ASSIGNED_CONTEXT ( ( #209, #208, #198 ) ) REPRESENTATION_CONTEXT ( 'NONE', 'WORKASPACE' ) );
#197 = UNCERTAINTY_MEASURE_WITH_UNIT (LENGTH_MEASURE( 1.000000000000000100E-005 ), #209, 'distance_accuracy_value', 'NONE');
#198 =( NAMED_UNIT ( * ) SI_UNIT ( $, .STERADIAN. ) SOLID_ANGLE_UNIT ( ) );
#199 = DIRECTION ( 'NONE',  ( 1.000000000000000000, 0.0000000000000000000, 0.0000000000000000000 ) ) ;
#200 = CARTESIAN_POINT ( 'NONE',  ( 100.0000000000000000, 0.0000000000000000000, 0.0000000000000000000 ) ) ;
#201 = CARTESIAN_POINT ( 'NONE',  ( 116.9705627484771400, 0.0000000000000000000, 4.000000000000000000 ) ) ;
#202 = VECTOR ( 'NONE', #228, 1000.000000000000000 ) ;
#203 = FACE_OUTER_BOUND ( 'NONE', #8, .T. ) ;
#204 = CARTESIAN_POINT ( 'NONE',  ( 0.0000000000000000000, 0.0000000000000000000, 0.0000000000000000000 ) ) ;
#205 = CARTESIAN_POINT ( 'NONE',  ( 0.0000000000000000000, 0.0000000000000000000, 4.000000000000000000 ) ) ;
#206 = CIRCLE ( 'NONE', #213, 4.000000000000000000 ) ;
#207 = FILL_AREA_STYLE_COLOUR ( '', #223 ) ;
#208 =( NAMED_UNIT ( * ) PLANE_ANGLE_UNIT ( ) SI_UNIT ( $, .RADIAN. ) );
#209 =( LENGTH_UNIT ( ) NAMED_UNIT ( * ) SI_UNIT ( .MILLI., .METRE. ) );
#210 = MECHANICAL_DESIGN_GEOMETRIC_PRESENTATION_REPRESENTATION (  '', ( #219 ), #196 ) ;
#211 = SURFACE_SIDE_STYLE ('',( #212 ) ) ;
#212 = SURFACE_STYLE_FILL_AREA ( #115 ) ;
#213 = AXIS2_PLACEMENT_3D ( 'NONE', #108, #107, #106 ) ;
#214 = FACE_OUTER_BOUND ( 'NONE', #7, .T. ) ;
#215 = FILL_AREA_STYLE_COLOUR ( '', #119 ) ;
#216 = FACE_BOUND ( 'NONE', #37, .T. ) ;
#217 = DIRECTION ( 'NONE',  ( 0.0000000000000000000, 0.0000000000000000000, -1.000000000000000000 ) ) ;
#218 = PRESENTATION_LAYER_ASSIGNMENT (  '', '', ( #219 ) ) ;
#219 = STYLED_ITEM ( 'NONE', ( #220 ), #57 ) ;
#220 = PRESENTATION_STYLE_ASSIGNMENT (( #221 ) ) ;
#221 = SURFACE_STYLE_USAGE ( .BOTH. , #222 ) ;
#222 = SURFACE_SIDE_STYLE ('',( #225 ) ) ;
#223 = COLOUR_RGB ( '',0.9686274509803921600, 1.000000000000000000, 0.9803921568627450600 ) ;
#224 = FILL_AREA_STYLE ('',( #166 ) ) ;
#225 = SURFACE_STYLE_FILL_AREA ( #226 ) ;
#226 = FILL_AREA_STYLE ('',( #113 ) ) ;
#227 = AXIS2_PLACEMENT_3D ( 'NONE', #194, #195, #190 ) ;
#228 = DIRECTION ( 'NONE',  ( -1.000000000000000000, -0.0000000000000000000, -0.0000000000000000000 ) ) ;
#229 = DIRECTION ( 'NONE',  ( 0.0000000000000000000, 0.0000000000000000000, -1.000000000000000000 ) ) ;
#230 = SHAPE_REPRESENTATION ( 'TU1208C-20.step', ( #318, #272 ), #264 ) ;
#231 = DIRECTION ( 'NONE',  ( 0.0000000000000000000, 0.0000000000000000000, 1.000000000000000000 ) ) ;
#232 = CARTESIAN_POINT ( 'NONE',  ( 0.0000000000000000000, 0.0000000000000000000, 0.0000000000000000000 ) ) ;
#233 = UNCERTAINTY_MEASURE_WITH_UNIT (LENGTH_MEASURE( 1.000000000000000100E-005 ), #317, 'distance_accuracy_value', 'NONE');
#234 = DIRECTION ( 'NONE',  ( 1.000000000000000000, 0.0000000000000000000, 0.0000000000000000000 ) ) ;
#235 = SHAPE_REPRESENTATION_RELATIONSHIP ( 'NONE' , 'NONE' ,  #236, #338 ) ;
#236 = SHAPE_REPRESENTATION ( 'TU1208C-20.step_TU3076 Tube_1208C', ( #337 ), #339 ) ;
#237 =( GEOMETRIC_REPRESENTATION_CONTEXT ( 3 ) GLOBAL_UNCERTAINTY_ASSIGNED_CONTEXT ( ( #238 ) ) GLOBAL_UNIT_ASSIGNED_CONTEXT ( ( #241, #240, #239 ) ) REPRESENTATION_CONTEXT ( 'NONE', 'WORKASPACE' ) );
#238 = UNCERTAINTY_MEASURE_WITH_UNIT (LENGTH_MEASURE( 1.000000000000000100E-005 ), #241, 'distance_accuracy_value', 'NONE');
#239 =( NAMED_UNIT ( * ) SI_UNIT ( $, .STERADIAN. ) SOLID_ANGLE_UNIT ( ) );
#240 =( NAMED_UNIT ( * ) PLANE_ANGLE_UNIT ( ) SI_UNIT ( $, .RADIAN. ) );
#241 =( LENGTH_UNIT ( ) NAMED_UNIT ( * ) SI_UNIT ( .MILLI., .METRE. ) );
#242 =( NAMED_UNIT ( * ) SI_UNIT ( $, .STERADIAN. ) SOLID_ANGLE_UNIT ( ) );
#243 =( NAMED_UNIT ( * ) PLANE_ANGLE_UNIT ( ) SI_UNIT ( $, .RADIAN. ) );
#244 =( LENGTH_UNIT ( ) NAMED_UNIT ( * ) SI_UNIT ( .MILLI., .METRE. ) );
#245 = MECHANICAL_DESIGN_GEOMETRIC_PRESENTATION_REPRESENTATION (  '', ( #247 ), #294 ) ;
#246 = PRESENTATION_LAYER_ASSIGNMENT (  '', '', ( #247 ) ) ;
#247 = STYLED_ITEM ( 'NONE', ( #248 ), #67 ) ;
#248 = PRESENTATION_STYLE_ASSIGNMENT (( #249 ) ) ;
#249 = SURFACE_STYLE_USAGE ( .BOTH. , #250 ) ;
#250 = SURFACE_SIDE_STYLE ('',( #251 ) ) ;
#251 = SURFACE_STYLE_FILL_AREA ( #252 ) ;
#252 = FILL_AREA_STYLE ('',( #258 ) ) ;
#253 = CYLINDRICAL_SURFACE ( 'NONE', #256, 4.000000000000000000 ) ;
#254 = FACE_OUTER_BOUND ( 'NONE', #31, .T. ) ;
#255 = CARTESIAN_POINT ( 'NONE',  ( 100.0000000000000000, 7.347880794884120700E-016, -6.000000000000000900 ) ) ;
#256 = AXIS2_PLACEMENT_3D ( 'NONE', #293, #325, #324 ) ;
#257 = CARTESIAN_POINT ( 'NONE',  ( 0.0000000000000000000, 4.898587196589412800E-016, -4.000000000000000000 ) ) ;
#258 = FILL_AREA_STYLE_COLOUR ( '', #259 ) ;
#259 = COLOUR_RGB ( '',0.9686274509803921600, 1.000000000000000000, 0.9803921568627450600 ) ;
#260 =( GEOMETRIC_REPRESENTATION_CONTEXT ( 3 ) GLOBAL_UNCERTAINTY_ASSIGNED_CONTEXT ( ( #290 ) ) GLOBAL_UNIT_ASSIGNED_CONTEXT ( ( #289, #291, #288 ) ) REPRESENTATION_CONTEXT ( 'NONE', 'WORKASPACE' ) );
#261 = APPLICATION_CONTEXT ( 'automotive_design' ) ;
#262 = APPLICATION_CONTEXT ( 'automotive_design' ) ;
#263 = ITEM_DEFINED_TRANSFORMATION ( 'NONE', 'NONE', #272,  #337 ) ;
#264 =( GEOMETRIC_REPRESENTATION_CONTEXT ( 3 ) GLOBAL_UNCERTAINTY_ASSIGNED_CONTEXT ( ( #265 ) ) GLOBAL_UNIT_ASSIGNED_CONTEXT ( ( #268, #267, #266 ) ) REPRESENTATION_CONTEXT ( 'NONE', 'WORKASPACE' ) );
#265 = UNCERTAINTY_MEASURE_WITH_UNIT (LENGTH_MEASURE( 1.000000000000000100E-005 ), #268, 'distance_accuracy_value', 'NONE');
#266 =( NAMED_UNIT ( * ) SI_UNIT ( $, .STERADIAN. ) SOLID_ANGLE_UNIT ( ) );
#267 =( NAMED_UNIT ( * ) PLANE_ANGLE_UNIT ( ) SI_UNIT ( $, .RADIAN. ) );
#268 =( LENGTH_UNIT ( ) NAMED_UNIT ( * ) SI_UNIT ( .MILLI., .METRE. ) );
#269 = DIRECTION ( 'NONE',  ( 1.000000000000000000, 0.0000000000000000000, 0.0000000000000000000 ) ) ;
#270 = DIRECTION ( 'NONE',  ( 0.0000000000000000000, 0.0000000000000000000, 1.000000000000000000 ) ) ;
#271 = CARTESIAN_POINT ( 'NONE',  ( 0.0000000000000000000, 0.0000000000000000000, 0.0000000000000000000 ) ) ;
#272 = AXIS2_PLACEMENT_3D ( 'NONE', #271, #270, #269 ) ;
#273 = DIRECTION ( 'NONE',  ( 1.000000000000000000, 0.0000000000000000000, 0.0000000000000000000 ) ) ;
#274 = DIRECTION ( 'NONE',  ( 0.0000000000000000000, 0.0000000000000000000, 1.000000000000000000 ) ) ;
#275 = CARTESIAN_POINT ( 'NONE',  ( 0.0000000000000000000, 0.0000000000000000000, 0.0000000000000000000 ) ) ;
#276 = AXIS2_PLACEMENT_3D ( 'NONE', #275, #274, #273 ) ;
#277 = PRODUCT_DEFINITION_SHAPE ( 'NONE', 'NONE',  #281 ) ;
#278 = PRODUCT_RELATED_PRODUCT_CATEGORY ( 'part', '', ( #285 ) ) ;
#279 = PRODUCT_DEFINITION_FORMATION_WITH_SPECIFIED_SOURCE ( 'ANY', '', #285, .NOT_KNOWN. ) ;
#280 = SHAPE_DEFINITION_REPRESENTATION ( #277, #230 ) ;
#281 = PRODUCT_DEFINITION ( 'UNKNOWN', '', #279, #282 ) ;
#282 = PRODUCT_DEFINITION_CONTEXT ( 'detailed design', #284, 'design' ) ;
#283 = APPLICATION_PROTOCOL_DEFINITION ( 'draft international standard', 'automotive_design', 1998, #284 ) ;
#284 = APPLICATION_CONTEXT ( 'automotive_design' ) ;
#285 = PRODUCT ( 'TU1208C-20.step', 'TU1208C-20.step', '', ( #286 ) ) ;
#286 = PRODUCT_CONTEXT ( 'NONE', #261, 'mechanical' ) ;
#287 = APPLICATION_PROTOCOL_DEFINITION ( 'draft international standard', 'automotive_design', 1998, #261 ) ;
#288 =( NAMED_UNIT ( * ) SI_UNIT ( $, .STERADIAN. ) SOLID_ANGLE_UNIT ( ) );
#289 =( LENGTH_UNIT ( ) NAMED_UNIT ( * ) SI_UNIT ( .MILLI., .METRE. ) );
#290 = UNCERTAINTY_MEASURE_WITH_UNIT (LENGTH_MEASURE( 1.000000000000000100E-005 ), #289, 'distance_accuracy_value', 'NONE');
#291 =( NAMED_UNIT ( * ) PLANE_ANGLE_UNIT ( ) SI_UNIT ( $, .RADIAN. ) );
#292 = CIRCLE ( 'NONE', #316, 4.000000000000000000 ) ;
#293 = CARTESIAN_POINT ( 'NONE',  ( 116.9705627484771400, 0.0000000000000000000, 0.0000000000000000000 ) ) ;
#294 =( GEOMETRIC_REPRESENTATION_CONTEXT ( 3 ) GLOBAL_UNCERTAINTY_ASSIGNED_CONTEXT ( ( #295 ) ) GLOBAL_UNIT_ASSIGNED_CONTEXT ( ( #244, #243, #242 ) ) REPRESENTATION_CONTEXT ( 'NONE', 'WORKASPACE' ) );
#295 = UNCERTAINTY_MEASURE_WITH_UNIT (LENGTH_MEASURE( 1.000000000000000100E-005 ), #244, 'distance_accuracy_value', 'NONE');
#296 = PRODUCT_DEFINITION_SHAPE ( 'NONE', 'NONE',  #300 ) ;
#297 = PRODUCT_RELATED_PRODUCT_CATEGORY ( 'part', '', ( #306 ) ) ;
#298 = PRODUCT_DEFINITION_FORMATION_WITH_SPECIFIED_SOURCE ( 'ANY', '', #306, .NOT_KNOWN. ) ;
#299 = SHAPE_DEFINITION_REPRESENTATION ( #296, #236 ) ;
#300 = PRODUCT_DEFINITION ( 'UNKNOWN', '', #298, #301 ) ;
#301 = PRODUCT_DEFINITION_CONTEXT ( 'detailed design', #303, 'design' ) ;
#302 = APPLICATION_PROTOCOL_DEFINITION ( 'draft international standard', 'automotive_design', 1998, #303 ) ;
#303 = APPLICATION_CONTEXT ( 'automotive_design' ) ;
#304 =( REPRESENTATION_RELATIONSHIP ('NONE','NONE', #230, #236 ) REPRESENTATION_RELATIONSHIP_WITH_TRANSFORMATION ( #263 )SHAPE_REPRESENTATION_RELATIONSHIP( ) );
#305 = PRODUCT_DEFINITION_SHAPE ( 'NONE', 'NONE',  #341 ) ;
#306 = PRODUCT ( 'TU1208C-20.step_TU3076 Tube_1208C', 'TU1208C-20.step_TU3076 Tube_1208C', '', ( #307 ) ) ;
#307 = PRODUCT_CONTEXT ( 'NONE', #262, 'mechanical' ) ;
#308 = APPLICATION_PROTOCOL_DEFINITION ( 'draft international standard', 'automotive_design', 1998, #262 ) ;
#309 =( NAMED_UNIT ( * ) SI_UNIT ( $, .STERADIAN. ) SOLID_ANGLE_UNIT ( ) );
#310 =( NAMED_UNIT ( * ) PLANE_ANGLE_UNIT ( ) SI_UNIT ( $, .RADIAN. ) );
#311 = FILL_AREA_STYLE ('',( #312 ) ) ;
#312 = FILL_AREA_STYLE_COLOUR ( '', #333 ) ;
#313 = DIRECTION ( 'NONE',  ( 0.0000000000000000000, 0.0000000000000000000, -1.000000000000000000 ) ) ;
#314 = DIRECTION ( 'NONE',  ( 1.000000000000000000, 0.0000000000000000000, 0.0000000000000000000 ) ) ;
#315 = CARTESIAN_POINT ( 'NONE',  ( 100.0000000000000000, 0.0000000000000000000, 0.0000000000000000000 ) ) ;
#316 = AXIS2_PLACEMENT_3D ( 'NONE', #315, #314, #313 ) ;
#317 =( LENGTH_UNIT ( ) NAMED_UNIT ( * ) SI_UNIT ( .MILLI., .METRE. ) );
#318 = AXIS2_PLACEMENT_3D ( 'NONE', #232, #231, #234 ) ;
#319 = DIRECTION ( 'NONE',  ( -1.000000000000000000, -0.0000000000000000000, -0.0000000000000000000 ) ) ;
#320 = VECTOR ( 'NONE', #319, 1000.000000000000000 ) ;
#321 = CARTESIAN_POINT ( 'NONE',  ( 116.9705627484771400, 4.898587196589412800E-016, -4.000000000000000000 ) ) ;
#322 = LINE ( 'NONE', #321, #320 ) ;
#323 = CARTESIAN_POINT ( 'NONE',  ( 100.0000000000000000, 4.898587196589412800E-016, -4.000000000000000000 ) ) ;
#324 = DIRECTION ( 'NONE',  ( 0.0000000000000000000, 0.0000000000000000000, 1.000000000000000000 ) ) ;
#325 = DIRECTION ( 'NONE',  ( -1.000000000000000000, -0.0000000000000000000, -0.0000000000000000000 ) ) ;
#326 = MECHANICAL_DESIGN_GEOMETRIC_PRESENTATION_REPRESENTATION (  '', ( #328 ), #237 ) ;
#327 = PRESENTATION_LAYER_ASSIGNMENT (  '', '', ( #328 ) ) ;
#328 = STYLED_ITEM ( 'NONE', ( #329 ), #338 ) ;
#329 = PRESENTATION_STYLE_ASSIGNMENT (( #330 ) ) ;
#330 = SURFACE_STYLE_USAGE ( .BOTH. , #331 ) ;
#331 = SURFACE_SIDE_STYLE ('',( #332 ) ) ;
#332 = SURFACE_STYLE_FILL_AREA ( #311 ) ;
#333 = COLOUR_RGB ( '',0.9686274509803921600, 1.000000000000000000, 0.9803921568627450600 ) ;
#334 = DIRECTION ( 'NONE',  ( 1.000000000000000000, 0.0000000000000000000, 0.0000000000000000000 ) ) ;
#335 = DIRECTION ( 'NONE',  ( 0.0000000000000000000, 0.0000000000000000000, 1.000000000000000000 ) ) ;
#336 = CARTESIAN_POINT ( 'NONE',  ( 0.0000000000000000000, 0.0000000000000000000, 0.0000000000000000000 ) ) ;
#337 = AXIS2_PLACEMENT_3D ( 'NONE', #336, #335, #334 ) ;
#338 = ADVANCED_BREP_SHAPE_REPRESENTATION ( '', ( #62, #337 ), #339 ) ;
#339 =( GEOMETRIC_REPRESENTATION_CONTEXT ( 3 ) GLOBAL_UNCERTAINTY_ASSIGNED_CONTEXT ( ( #233 ) ) GLOBAL_UNIT_ASSIGNED_CONTEXT ( ( #317, #310, #309 ) ) REPRESENTATION_CONTEXT ( 'NONE', 'WORKASPACE' ) );
#340 = CONTEXT_DEPENDENT_SHAPE_REPRESENTATION ( #304, #305 ) ;
#341 = NEXT_ASSEMBLY_USAGE_OCCURRENCE ( 'NAUO1', ' ', ' ', #281, #300, $ ) ;
ENDSEC;
END-ISO-10303-21;
