ISO-10303-21;
HEADER;
FILE_DESCRIPTION (( 'STEP AP214' ),
    '1' );
FILE_NAME ('TU1610C-20.step.step',
    '2015-01-28T19:56:16',
    ( 'Windows User' ),
    ( '' ),
    'SwSTEP 2.0',
    'SolidWorks 2015',
    '' );
FILE_SCHEMA (( 'AUTOMOTIVE_DESIGN' ));
ENDSEC;

DATA;
#1 = SURFACE_SIDE_STYLE ('',( #295 ) ) ;
#2 = CARTESIAN_POINT ( 'NONE',  ( 122.6274169979695300, 0.0000000000000000000, 0.0000000000000000000 ) ) ;
#3 = PRESENTATION_STYLE_ASSIGNMENT (( #150 ) ) ;
#4 = ORIENTED_EDGE ( 'NONE', *, *, #95, .F. ) ;
#5 = SURFACE_STYLE_FILL_AREA ( #77 ) ;
#6 = CARTESIAN_POINT ( 'NONE',  ( 100.0000000000000000, 0.0000000000000000000, 0.0000000000000000000 ) ) ;
#7 = STYLED_ITEM ( 'NONE', ( #257 ), #326 ) ;
#8 = EDGE_CURVE ( 'NONE', #248, #91, #171, .T. ) ;
#9 = DIRECTION ( 'NONE',  ( 1.000000000000000000, 0.0000000000000000000, 0.0000000000000000000 ) ) ;
#10 = DIRECTION ( 'NONE',  ( -1.000000000000000000, -0.0000000000000000000, -0.0000000000000000000 ) ) ;
#11 = SURFACE_STYLE_USAGE ( .BOTH. , #149 ) ;
#12 = CARTESIAN_POINT ( 'NONE',  ( 122.6274169979695300, 0.0000000000000000000, 8.000000000000000000 ) ) ;
#13 = PRODUCT_DEFINITION_SHAPE ( 'NONE', 'NONE',  #313 ) ;
#14 = PRESENTATION_STYLE_ASSIGNMENT (( #269 ) ) ;
#15 = STYLED_ITEM ( 'NONE', ( #135 ), #56 ) ;
#16 = EDGE_LOOP ( 'NONE', ( #32, #129 ) ) ;
#17 = APPLICATION_CONTEXT ( 'automotive_design' ) ;
#18 = EDGE_CURVE ( 'NONE', #227, #144, #153, .T. ) ;
#19 = APPLICATION_PROTOCOL_DEFINITION ( 'draft international standard', 'automotive_design', 1998, #17 ) ;
#20 = CIRCLE ( 'NONE', #34, 8.000000000000000000 ) ;
#21 = CIRCLE ( 'NONE', #161, 5.000000000000000000 ) ;
#22 = AXIS2_PLACEMENT_3D ( 'NONE', #2, #10, #317 ) ;
#23 = SHAPE_DEFINITION_REPRESENTATION ( #13, #75 ) ;
#24 =( NAMED_UNIT ( * ) SI_UNIT ( $, .STERADIAN. ) SOLID_ANGLE_UNIT ( ) );
#25 = EDGE_CURVE ( 'NONE', #281, #338, #168, .T. ) ;
#26 = SHAPE_DEFINITION_REPRESENTATION ( #196, #177 ) ;
#27 = PRODUCT_RELATED_PRODUCT_CATEGORY ( 'part', '', ( #265 ) ) ;
#28 = EDGE_LOOP ( 'NONE', ( #156, #253 ) ) ;
#29 = SURFACE_STYLE_USAGE ( .BOTH. , #297 ) ;
#30 =( LENGTH_UNIT ( ) NAMED_UNIT ( * ) SI_UNIT ( .MILLI., .METRE. ) );
#31 = STYLED_ITEM ( 'NONE', ( #242 ), #54 ) ;
#32 = ORIENTED_EDGE ( 'NONE', *, *, #122, .T. ) ;
#33 = PRESENTATION_LAYER_ASSIGNMENT (  '', '', ( #15 ) ) ;
#34 = AXIS2_PLACEMENT_3D ( 'NONE', #274, #134, #318 ) ;
#35 = PLANE ( 'NONE',  #68 ) ;
#36 = SURFACE_STYLE_FILL_AREA ( #38 ) ;
#37 = EDGE_LOOP ( 'NONE', ( #208, #223, #125, #39 ) ) ;
#38 = FILL_AREA_STYLE ('',( #212 ) ) ;
#39 = ORIENTED_EDGE ( 'NONE', *, *, #205, .F. ) ;
#40 = ORIENTED_EDGE ( 'NONE', *, *, #157, .T. ) ;
#41 =( NAMED_UNIT ( * ) PLANE_ANGLE_UNIT ( ) SI_UNIT ( $, .RADIAN. ) );
#42 = SURFACE_STYLE_USAGE ( .BOTH. , #145 ) ;
#43 = ADVANCED_FACE ( 'NONE', ( #148 ), #288, .T. ) ;
#44 = AXIS2_PLACEMENT_3D ( 'NONE', #76, #137, #159 ) ;
#45 = PRESENTATION_LAYER_ASSIGNMENT (  '', '', ( #296 ) ) ;
#46 = FACE_OUTER_BOUND ( 'NONE', #231, .T. ) ;
#47 = DIRECTION ( 'NONE',  ( 1.000000000000000000, 0.0000000000000000000, 0.0000000000000000000 ) ) ;
#48 =( GEOMETRIC_REPRESENTATION_CONTEXT ( 3 ) GLOBAL_UNCERTAINTY_ASSIGNED_CONTEXT ( ( #247 ) ) GLOBAL_UNIT_ASSIGNED_CONTEXT ( ( #179, #186, #67 ) ) REPRESENTATION_CONTEXT ( 'NONE', 'WORKASPACE' ) );
#49 = FILL_AREA_STYLE_COLOUR ( '', #66 ) ;
#50 = CARTESIAN_POINT ( 'NONE',  ( 100.0000000000000000, 0.0000000000000000000, 0.0000000000000000000 ) ) ;
#51 = SURFACE_STYLE_FILL_AREA ( #191 ) ;
#52 = PRESENTATION_STYLE_ASSIGNMENT (( #237 ) ) ;
#53 = APPLICATION_PROTOCOL_DEFINITION ( 'draft international standard', 'automotive_design', 1998, #235 ) ;
#54 = ADVANCED_FACE ( 'NONE', ( #46, #59 ), #166, .F. ) ;
#55 = EDGE_CURVE ( 'NONE', #144, #338, #197, .T. ) ;
#56 = ADVANCED_FACE ( 'NONE', ( #180, #218 ), #35, .T. ) ;
#57 = DIRECTION ( 'NONE',  ( 1.000000000000000000, 0.0000000000000000000, 0.0000000000000000000 ) ) ;
#58 = PRODUCT_CONTEXT ( 'NONE', #117, 'mechanical' ) ;
#59 = FACE_BOUND ( 'NONE', #63, .T. ) ;
#60 = CONTEXT_DEPENDENT_SHAPE_REPRESENTATION ( #312, #309 ) ;
#61 = MECHANICAL_DESIGN_GEOMETRIC_PRESENTATION_REPRESENTATION (  '', ( #245 ), #108 ) ;
#62 = CARTESIAN_POINT ( 'NONE',  ( 0.0000000000000000000, 0.0000000000000000000, 5.000000000000000000 ) ) ;
#63 = EDGE_LOOP ( 'NONE', ( #88, #323 ) ) ;
#64 =( NAMED_UNIT ( * ) PLANE_ANGLE_UNIT ( ) SI_UNIT ( $, .RADIAN. ) );
#65 = FILL_AREA_STYLE_COLOUR ( '', #243 ) ;
#66 = COLOUR_RGB ( '',0.9372549019607843100, 0.6784313725490196400, 0.1960784313725490200 ) ;
#67 =( NAMED_UNIT ( * ) SI_UNIT ( $, .STERADIAN. ) SOLID_ANGLE_UNIT ( ) );
#68 = AXIS2_PLACEMENT_3D ( 'NONE', #187, #47, #233 ) ;
#69 = ORIENTED_EDGE ( 'NONE', *, *, #126, .T. ) ;
#70 = ORIENTED_EDGE ( 'NONE', *, *, #8, .T. ) ;
#71 = CLOSED_SHELL ( 'NONE', ( #321, #43, #124, #54, #190, #56 ) ) ;
#72 = SHAPE_REPRESENTATION_RELATIONSHIP ( 'NONE' , 'NONE' ,  #177, #193 ) ;
#73 = DIRECTION ( 'NONE',  ( 1.000000000000000000, 0.0000000000000000000, 0.0000000000000000000 ) ) ;
#74 = COLOUR_RGB ( '',0.9372549019607843100, 0.6784313725490196400, 0.1960784313725490200 ) ;
#75 = SHAPE_REPRESENTATION ( 'TU1610C-20.step', ( #252, #178 ), #140 ) ;
#76 = CARTESIAN_POINT ( 'NONE',  ( 0.0000000000000000000, 0.0000000000000000000, 0.0000000000000000000 ) ) ;
#77 = FILL_AREA_STYLE ('',( #127 ) ) ;
#78 = PRODUCT_DEFINITION_CONTEXT ( 'detailed design', #235, 'design' ) ;
#79 = CARTESIAN_POINT ( 'NONE',  ( 122.6274169979695300, 0.0000000000000000000, 5.000000000000000000 ) ) ;
#80 = DIRECTION ( 'NONE',  ( -1.000000000000000000, -0.0000000000000000000, -0.0000000000000000000 ) ) ;
#81 = CARTESIAN_POINT ( 'NONE',  ( 100.0000000000000000, 9.797174393178825700E-016, -8.000000000000000000 ) ) ;
#82 = CARTESIAN_POINT ( 'NONE',  ( 100.0000000000000000, 0.0000000000000000000, 8.000000000000000000 ) ) ;
#83 = LINE ( 'NONE', #12, #240 ) ;
#84 =( NAMED_UNIT ( * ) SI_UNIT ( $, .STERADIAN. ) SOLID_ANGLE_UNIT ( ) );
#85 = DIRECTION ( 'NONE',  ( 1.000000000000000000, 0.0000000000000000000, 0.0000000000000000000 ) ) ;
#86 = CARTESIAN_POINT ( 'NONE',  ( 122.6274169979695300, 9.797174393178825700E-016, -8.000000000000000000 ) ) ;
#87 = DIRECTION ( 'NONE',  ( -1.000000000000000000, -0.0000000000000000000, -0.0000000000000000000 ) ) ;
#88 = ORIENTED_EDGE ( 'NONE', *, *, #25, .T. ) ;
#89 = UNCERTAINTY_MEASURE_WITH_UNIT (LENGTH_MEASURE( 1.000000000000000100E-005 ), #151, 'distance_accuracy_value', 'NONE');
#90 = APPLICATION_PROTOCOL_DEFINITION ( 'draft international standard', 'automotive_design', 1998, #173 ) ;
#91 = VERTEX_POINT ( 'NONE', #104 ) ;
#92 = PRODUCT_DEFINITION_FORMATION_WITH_SPECIFIED_SOURCE ( 'ANY', '', #169, .NOT_KNOWN. ) ;
#93 = COLOUR_RGB ( '',0.9686274509803921600, 1.000000000000000000, 0.9803921568627450600 ) ;
#94 = CARTESIAN_POINT ( 'NONE',  ( 100.0000000000000000, 6.123233995736766300E-016, -5.000000000000000000 ) ) ;
#95 = EDGE_CURVE ( 'NONE', #236, #320, #20, .T. ) ;
#96 = VECTOR ( 'NONE', #87, 1000.000000000000000 ) ;
#97 =( NAMED_UNIT ( * ) PLANE_ANGLE_UNIT ( ) SI_UNIT ( $, .RADIAN. ) );
#98 = COLOUR_RGB ( '',0.9372549019607843100, 0.6784313725490196400, 0.1960784313725490200 ) ;
#99 = AXIS2_PLACEMENT_3D ( 'NONE', #188, #294, #167 ) ;
#100 = MECHANICAL_DESIGN_GEOMETRIC_PRESENTATION_REPRESENTATION (  '', ( #7 ), #255 ) ;
#101 =( LENGTH_UNIT ( ) NAMED_UNIT ( * ) SI_UNIT ( .MILLI., .METRE. ) );
#102 = ORIENTED_EDGE ( 'NONE', *, *, #128, .F. ) ;
#103 =( NAMED_UNIT ( * ) PLANE_ANGLE_UNIT ( ) SI_UNIT ( $, .RADIAN. ) );
#104 = CARTESIAN_POINT ( 'NONE',  ( 0.0000000000000000000, 0.0000000000000000000, 8.000000000000000000 ) ) ;
#105 = EDGE_LOOP ( 'NONE', ( #4, #69, #70, #273 ) ) ;
#106 =( GEOMETRIC_REPRESENTATION_CONTEXT ( 3 ) GLOBAL_UNCERTAINTY_ASSIGNED_CONTEXT ( ( #250 ) ) GLOBAL_UNIT_ASSIGNED_CONTEXT ( ( #307, #306, #116 ) ) REPRESENTATION_CONTEXT ( 'NONE', 'WORKASPACE' ) );
#107 = SURFACE_STYLE_FILL_AREA ( #271 ) ;
#108 =( GEOMETRIC_REPRESENTATION_CONTEXT ( 3 ) GLOBAL_UNCERTAINTY_ASSIGNED_CONTEXT ( ( #142 ) ) GLOBAL_UNIT_ASSIGNED_CONTEXT ( ( #329, #64, #333 ) ) REPRESENTATION_CONTEXT ( 'NONE', 'WORKASPACE' ) );
#109 = MECHANICAL_DESIGN_GEOMETRIC_PRESENTATION_REPRESENTATION (  '', ( #249 ), #106 ) ;
#110 =( LENGTH_UNIT ( ) NAMED_UNIT ( * ) SI_UNIT ( .MILLI., .METRE. ) );
#111 = ORIENTED_EDGE ( 'NONE', *, *, #55, .F. ) ;
#112 = DIRECTION ( 'NONE',  ( -1.000000000000000000, -0.0000000000000000000, -0.0000000000000000000 ) ) ;
#113 = SURFACE_SIDE_STYLE ('',( #184 ) ) ;
#114 =( LENGTH_UNIT ( ) NAMED_UNIT ( * ) SI_UNIT ( .MILLI., .METRE. ) );
#115 = SURFACE_STYLE_FILL_AREA ( #266 ) ;
#116 =( NAMED_UNIT ( * ) SI_UNIT ( $, .STERADIAN. ) SOLID_ANGLE_UNIT ( ) );
#117 = APPLICATION_CONTEXT ( 'automotive_design' ) ;
#118 = APPLICATION_PROTOCOL_DEFINITION ( 'draft international standard', 'automotive_design', 1998, #117 ) ;
#119 = PRODUCT_DEFINITION_CONTEXT ( 'detailed design', #173, 'design' ) ;
#120 = PRODUCT_DEFINITION_FORMATION_WITH_SPECIFIED_SOURCE ( 'ANY', '', #265, .NOT_KNOWN. ) ;
#121 = CARTESIAN_POINT ( 'NONE',  ( 100.0000000000000000, 0.0000000000000000000, 5.000000000000000000 ) ) ;
#122 = EDGE_CURVE ( 'NONE', #320, #236, #254, .T. ) ;
#123 = PRESENTATION_LAYER_ASSIGNMENT (  '', '', ( #158 ) ) ;
#124 = ADVANCED_FACE ( 'NONE', ( #291 ), #201, .T. ) ;
#125 = ORIENTED_EDGE ( 'NONE', *, *, #25, .F. ) ;
#126 = EDGE_CURVE ( 'NONE', #236, #248, #332, .T. ) ;
#127 = FILL_AREA_STYLE_COLOUR ( '', #74 ) ;
#128 = EDGE_CURVE ( 'NONE', #338, #281, #225, .T. ) ;
#129 = ORIENTED_EDGE ( 'NONE', *, *, #95, .T. ) ;
#130 = DIRECTION ( 'NONE',  ( 1.000000000000000000, 0.0000000000000000000, 0.0000000000000000000 ) ) ;
#131 = CARTESIAN_POINT ( 'NONE',  ( 0.0000000000000000000, 0.0000000000000000000, 0.0000000000000000000 ) ) ;
#132 = PRESENTATION_LAYER_ASSIGNMENT (  '', '', ( #249 ) ) ;
#133 = CARTESIAN_POINT ( 'NONE',  ( 0.0000000000000000000, 0.0000000000000000000, 0.0000000000000000000 ) ) ;
#134 = DIRECTION ( 'NONE',  ( 1.000000000000000000, 0.0000000000000000000, 0.0000000000000000000 ) ) ;
#135 = PRESENTATION_STYLE_ASSIGNMENT (( #138 ) ) ;
#136 = PRODUCT_RELATED_PRODUCT_CATEGORY ( 'part', '', ( #169 ) ) ;
#137 = DIRECTION ( 'NONE',  ( 1.000000000000000000, 0.0000000000000000000, 0.0000000000000000000 ) ) ;
#138 = SURFACE_STYLE_USAGE ( .BOTH. , #113 ) ;
#139 = EDGE_CURVE ( 'NONE', #91, #248, #339, .T. ) ;
#140 =( GEOMETRIC_REPRESENTATION_CONTEXT ( 3 ) GLOBAL_UNCERTAINTY_ASSIGNED_CONTEXT ( ( #89 ) ) GLOBAL_UNIT_ASSIGNED_CONTEXT ( ( #151, #229, #220 ) ) REPRESENTATION_CONTEXT ( 'NONE', 'WORKASPACE' ) );
#141 =( NAMED_UNIT ( * ) SI_UNIT ( $, .STERADIAN. ) SOLID_ANGLE_UNIT ( ) );
#142 = UNCERTAINTY_MEASURE_WITH_UNIT (LENGTH_MEASURE( 1.000000000000000100E-005 ), #329, 'distance_accuracy_value', 'NONE');
#143 = VECTOR ( 'NONE', #263, 1000.000000000000000 ) ;
#144 = VERTEX_POINT ( 'NONE', #94 ) ;
#145 = SURFACE_SIDE_STYLE ('',( #214 ) ) ;
#146 = AXIS2_PLACEMENT_3D ( 'NONE', #267, #73, #301 ) ;
#147 = UNCERTAINTY_MEASURE_WITH_UNIT (LENGTH_MEASURE( 1.000000000000000100E-005 ), #110, 'distance_accuracy_value', 'NONE');
#148 = FACE_OUTER_BOUND ( 'NONE', #105, .T. ) ;
#149 = SURFACE_SIDE_STYLE ('',( #115 ) ) ;
#150 = SURFACE_STYLE_USAGE ( .BOTH. , #215 ) ;
#151 =( LENGTH_UNIT ( ) NAMED_UNIT ( * ) SI_UNIT ( .MILLI., .METRE. ) );
#152 = DIRECTION ( 'NONE',  ( 1.000000000000000000, 0.0000000000000000000, 0.0000000000000000000 ) ) ;
#153 = CIRCLE ( 'NONE', #286, 5.000000000000000000 ) ;
#154 = PRESENTATION_LAYER_ASSIGNMENT (  '', '', ( #258 ) ) ;
#155 = DIRECTION ( 'NONE',  ( -1.000000000000000000, -0.0000000000000000000, -0.0000000000000000000 ) ) ;
#156 = ORIENTED_EDGE ( 'NONE', *, *, #18, .F. ) ;
#157 = EDGE_CURVE ( 'NONE', #320, #91, #83, .T. ) ;
#158 = STYLED_ITEM ( 'NONE', ( #52 ), #124 ) ;
#159 = DIRECTION ( 'NONE',  ( 0.0000000000000000000, 0.0000000000000000000, -1.000000000000000000 ) ) ;
#160 = CYLINDRICAL_SURFACE ( 'NONE', #22, 5.000000000000000000 ) ;
#161 = AXIS2_PLACEMENT_3D ( 'NONE', #6, #314, #200 ) ;
#162 = AXIS2_PLACEMENT_3D ( 'NONE', #224, #112, #204 ) ;
#163 = FACE_OUTER_BOUND ( 'NONE', #239, .T. ) ;
#164 = DIRECTION ( 'NONE',  ( 0.0000000000000000000, 0.0000000000000000000, 1.000000000000000000 ) ) ;
#165 = DIRECTION ( 'NONE',  ( 0.0000000000000000000, 0.0000000000000000000, -1.000000000000000000 ) ) ;
#166 = PLANE ( 'NONE',  #44 ) ;
#167 = DIRECTION ( 'NONE',  ( 1.000000000000000000, 0.0000000000000000000, 0.0000000000000000000 ) ) ;
#168 = CIRCLE ( 'NONE', #303, 5.000000000000000000 ) ;
#169 = PRODUCT ( 'TU1610C-20.step', 'TU1610C-20.step', '', ( #241 ) ) ;
#170 = FILL_AREA_STYLE ('',( #330 ) ) ;
#171 = CIRCLE ( 'NONE', #146, 8.000000000000000000 ) ;
#172 = MECHANICAL_DESIGN_GEOMETRIC_PRESENTATION_REPRESENTATION (  '', ( #15 ), #287 ) ;
#173 = APPLICATION_CONTEXT ( 'automotive_design' ) ;
#174 =( NAMED_UNIT ( * ) SI_UNIT ( $, .STERADIAN. ) SOLID_ANGLE_UNIT ( ) );
#175 = CYLINDRICAL_SURFACE ( 'NONE', #162, 5.000000000000000000 ) ;
#176 = ORIENTED_EDGE ( 'NONE', *, *, #181, .T. ) ;
#177 = SHAPE_REPRESENTATION ( 'TU1610C-20.step_TU3076 Tube_1610C', ( #99 ), #189 ) ;
#178 = AXIS2_PLACEMENT_3D ( 'NONE', #334, #298, #130 ) ;
#179 =( LENGTH_UNIT ( ) NAMED_UNIT ( * ) SI_UNIT ( .MILLI., .METRE. ) );
#180 = FACE_BOUND ( 'NONE', #28, .T. ) ;
#181 = EDGE_CURVE ( 'NONE', #144, #227, #21, .T. ) ;
#182 = DIRECTION ( 'NONE',  ( 0.0000000000000000000, 0.0000000000000000000, -1.000000000000000000 ) ) ;
#183 = PRESENTATION_LAYER_ASSIGNMENT (  '', '', ( #31 ) ) ;
#184 = SURFACE_STYLE_FILL_AREA ( #299 ) ;
#185 = DIRECTION ( 'NONE',  ( 0.0000000000000000000, 0.0000000000000000000, -1.000000000000000000 ) ) ;
#186 =( NAMED_UNIT ( * ) PLANE_ANGLE_UNIT ( ) SI_UNIT ( $, .RADIAN. ) );
#187 = CARTESIAN_POINT ( 'NONE',  ( 100.0000000000000000, 0.0000000000000000000, 0.0000000000000000000 ) ) ;
#188 = CARTESIAN_POINT ( 'NONE',  ( 0.0000000000000000000, 0.0000000000000000000, 0.0000000000000000000 ) ) ;
#189 =( GEOMETRIC_REPRESENTATION_CONTEXT ( 3 ) GLOBAL_UNCERTAINTY_ASSIGNED_CONTEXT ( ( #147 ) ) GLOBAL_UNIT_ASSIGNED_CONTEXT ( ( #110, #97, #211 ) ) REPRESENTATION_CONTEXT ( 'NONE', 'WORKASPACE' ) );
#190 = ADVANCED_FACE ( 'NONE', ( #163 ), #175, .F. ) ;
#191 = FILL_AREA_STYLE ('',( #285 ) ) ;
#192 =( NAMED_UNIT ( * ) PLANE_ANGLE_UNIT ( ) SI_UNIT ( $, .RADIAN. ) );
#193 = ADVANCED_BREP_SHAPE_REPRESENTATION ( '', ( #326, #99 ), #189 ) ;
#194 = FACE_OUTER_BOUND ( 'NONE', #37, .T. ) ;
#195 = DIRECTION ( 'NONE',  ( 1.000000000000000000, 0.0000000000000000000, 0.0000000000000000000 ) ) ;
#196 = PRODUCT_DEFINITION_SHAPE ( 'NONE', 'NONE',  #272 ) ;
#197 = LINE ( 'NONE', #300, #96 ) ;
#198 = AXIS2_PLACEMENT_3D ( 'NONE', #226, #308, #283 ) ;
#199 = AXIS2_PLACEMENT_3D ( 'NONE', #50, #152, #264 ) ;
#200 = DIRECTION ( 'NONE',  ( 0.0000000000000000000, 0.0000000000000000000, -1.000000000000000000 ) ) ;
#201 = CYLINDRICAL_SURFACE ( 'NONE', #198, 8.000000000000000000 ) ;
#202 = PRESENTATION_LAYER_ASSIGNMENT (  '', '', ( #245 ) ) ;
#203 = CARTESIAN_POINT ( 'NONE',  ( 0.0000000000000000000, 9.797174393178825700E-016, -8.000000000000000000 ) ) ;
#204 = DIRECTION ( 'NONE',  ( 0.0000000000000000000, 0.0000000000000000000, 1.000000000000000000 ) ) ;
#205 = EDGE_CURVE ( 'NONE', #227, #281, #270, .T. ) ;
#206 = DIRECTION ( 'NONE',  ( 1.000000000000000000, 0.0000000000000000000, 0.0000000000000000000 ) ) ;
#207 = SURFACE_SIDE_STYLE ('',( #51 ) ) ;
#208 = ORIENTED_EDGE ( 'NONE', *, *, #18, .T. ) ;
#209 = UNCERTAINTY_MEASURE_WITH_UNIT (LENGTH_MEASURE( 1.000000000000000100E-005 ), #30, 'distance_accuracy_value', 'NONE');
#210 = ORIENTED_EDGE ( 'NONE', *, *, #126, .F. ) ;
#211 =( NAMED_UNIT ( * ) SI_UNIT ( $, .STERADIAN. ) SOLID_ANGLE_UNIT ( ) );
#212 = FILL_AREA_STYLE_COLOUR ( '', #93 ) ;
#213 = SURFACE_STYLE_USAGE ( .BOTH. , #324 ) ;
#214 = SURFACE_STYLE_FILL_AREA ( #170 ) ;
#215 = SURFACE_SIDE_STYLE ('',( #107 ) ) ;
#216 = DIRECTION ( 'NONE',  ( 0.0000000000000000000, 0.0000000000000000000, 1.000000000000000000 ) ) ;
#217 = FILL_AREA_STYLE ('',( #322 ) ) ;
#218 = FACE_OUTER_BOUND ( 'NONE', #16, .T. ) ;
#219 = UNCERTAINTY_MEASURE_WITH_UNIT (LENGTH_MEASURE( 1.000000000000000100E-005 ), #325, 'distance_accuracy_value', 'NONE');
#220 =( NAMED_UNIT ( * ) SI_UNIT ( $, .STERADIAN. ) SOLID_ANGLE_UNIT ( ) );
#221 =( NAMED_UNIT ( * ) PLANE_ANGLE_UNIT ( ) SI_UNIT ( $, .RADIAN. ) );
#222 = DIRECTION ( 'NONE',  ( 0.0000000000000000000, 0.0000000000000000000, -1.000000000000000000 ) ) ;
#223 = ORIENTED_EDGE ( 'NONE', *, *, #55, .T. ) ;
#224 = CARTESIAN_POINT ( 'NONE',  ( 122.6274169979695300, 0.0000000000000000000, 0.0000000000000000000 ) ) ;
#225 = CIRCLE ( 'NONE', #284, 5.000000000000000000 ) ;
#226 = CARTESIAN_POINT ( 'NONE',  ( 122.6274169979695300, 0.0000000000000000000, 0.0000000000000000000 ) ) ;
#227 = VERTEX_POINT ( 'NONE', #121 ) ;
#228 = ITEM_DEFINED_TRANSFORMATION ( 'NONE', 'NONE', #178,  #99 ) ;
#229 =( NAMED_UNIT ( * ) PLANE_ANGLE_UNIT ( ) SI_UNIT ( $, .RADIAN. ) );
#230 = ORIENTED_EDGE ( 'NONE', *, *, #8, .F. ) ;
#231 = EDGE_LOOP ( 'NONE', ( #310, #230 ) ) ;
#232 = FILL_AREA_STYLE_COLOUR ( '', #337 ) ;
#233 = DIRECTION ( 'NONE',  ( 0.0000000000000000000, 0.0000000000000000000, -1.000000000000000000 ) ) ;
#234 = VECTOR ( 'NONE', #305, 1000.000000000000000 ) ;
#235 = APPLICATION_CONTEXT ( 'automotive_design' ) ;
#236 = VERTEX_POINT ( 'NONE', #81 ) ;
#237 = SURFACE_STYLE_USAGE ( .BOTH. , #1 ) ;
#238 = ORIENTED_EDGE ( 'NONE', *, *, #205, .T. ) ;
#239 = EDGE_LOOP ( 'NONE', ( #111, #176, #238, #102 ) ) ;
#240 = VECTOR ( 'NONE', #80, 1000.000000000000000 ) ;
#241 = PRODUCT_CONTEXT ( 'NONE', #17, 'mechanical' ) ;
#242 = PRESENTATION_STYLE_ASSIGNMENT (( #42 ) ) ;
#243 = COLOUR_RGB ( '',0.9372549019607843100, 0.6784313725490196400, 0.1960784313725490200 ) ;
#244 =( NAMED_UNIT ( * ) SI_UNIT ( $, .STERADIAN. ) SOLID_ANGLE_UNIT ( ) );
#245 = STYLED_ITEM ( 'NONE', ( #251 ), #321 ) ;
#246 = EDGE_LOOP ( 'NONE', ( #210, #316, #40, #268 ) ) ;
#247 = UNCERTAINTY_MEASURE_WITH_UNIT (LENGTH_MEASURE( 1.000000000000000100E-005 ), #179, 'distance_accuracy_value', 'NONE');
#248 = VERTEX_POINT ( 'NONE', #203 ) ;
#249 = STYLED_ITEM ( 'NONE', ( #282 ), #193 ) ;
#250 = UNCERTAINTY_MEASURE_WITH_UNIT (LENGTH_MEASURE( 1.000000000000000100E-005 ), #307, 'distance_accuracy_value', 'NONE');
#251 = PRESENTATION_STYLE_ASSIGNMENT (( #213 ) ) ;
#252 = AXIS2_PLACEMENT_3D ( 'NONE', #276, #216, #206 ) ;
#253 = ORIENTED_EDGE ( 'NONE', *, *, #181, .F. ) ;
#254 = CIRCLE ( 'NONE', #199, 8.000000000000000000 ) ;
#255 =( GEOMETRIC_REPRESENTATION_CONTEXT ( 3 ) GLOBAL_UNCERTAINTY_ASSIGNED_CONTEXT ( ( #256 ) ) GLOBAL_UNIT_ASSIGNED_CONTEXT ( ( #114, #192, #141 ) ) REPRESENTATION_CONTEXT ( 'NONE', 'WORKASPACE' ) );
#256 = UNCERTAINTY_MEASURE_WITH_UNIT (LENGTH_MEASURE( 1.000000000000000100E-005 ), #114, 'distance_accuracy_value', 'NONE');
#257 = PRESENTATION_STYLE_ASSIGNMENT (( #11 ) ) ;
#258 = STYLED_ITEM ( 'NONE', ( #14 ), #190 ) ;
#259 = PRESENTATION_LAYER_ASSIGNMENT (  '', '', ( #7 ) ) ;
#260 = MECHANICAL_DESIGN_GEOMETRIC_PRESENTATION_REPRESENTATION (  '', ( #296 ), #311 ) ;
#261 = CARTESIAN_POINT ( 'NONE',  ( 100.0000000000000000, 0.0000000000000000000, 0.0000000000000000000 ) ) ;
#262 =( NAMED_UNIT ( * ) PLANE_ANGLE_UNIT ( ) SI_UNIT ( $, .RADIAN. ) );
#263 = DIRECTION ( 'NONE',  ( -1.000000000000000000, -0.0000000000000000000, -0.0000000000000000000 ) ) ;
#264 = DIRECTION ( 'NONE',  ( 0.0000000000000000000, 0.0000000000000000000, -1.000000000000000000 ) ) ;
#265 = PRODUCT ( 'TU1610C-20.step_TU3076 Tube_1610C', 'TU1610C-20.step_TU3076 Tube_1610C', '', ( #58 ) ) ;
#266 = FILL_AREA_STYLE ('',( #232 ) ) ;
#267 = CARTESIAN_POINT ( 'NONE',  ( 0.0000000000000000000, 0.0000000000000000000, 0.0000000000000000000 ) ) ;
#268 = ORIENTED_EDGE ( 'NONE', *, *, #139, .T. ) ;
#269 = SURFACE_STYLE_USAGE ( .BOTH. , #207 ) ;
#270 = LINE ( 'NONE', #79, #143 ) ;
#271 = FILL_AREA_STYLE ('',( #49 ) ) ;
#272 = PRODUCT_DEFINITION ( 'UNKNOWN', '', #120, #78 ) ;
#273 = ORIENTED_EDGE ( 'NONE', *, *, #157, .F. ) ;
#274 = CARTESIAN_POINT ( 'NONE',  ( 100.0000000000000000, 0.0000000000000000000, 0.0000000000000000000 ) ) ;
#275 =( LENGTH_UNIT ( ) NAMED_UNIT ( * ) SI_UNIT ( .MILLI., .METRE. ) );
#276 = CARTESIAN_POINT ( 'NONE',  ( 0.0000000000000000000, 0.0000000000000000000, 0.0000000000000000000 ) ) ;
#277 = DIRECTION ( 'NONE',  ( 1.000000000000000000, 0.0000000000000000000, 0.0000000000000000000 ) ) ;
#278 = AXIS2_PLACEMENT_3D ( 'NONE', #327, #155, #292 ) ;
#279 = CARTESIAN_POINT ( 'NONE',  ( 0.0000000000000000000, 0.0000000000000000000, 0.0000000000000000000 ) ) ;
#280 = MECHANICAL_DESIGN_GEOMETRIC_PRESENTATION_REPRESENTATION (  '', ( #158 ), #331 ) ;
#281 = VERTEX_POINT ( 'NONE', #62 ) ;
#282 = PRESENTATION_STYLE_ASSIGNMENT (( #29 ) ) ;
#283 = DIRECTION ( 'NONE',  ( 0.0000000000000000000, 0.0000000000000000000, 1.000000000000000000 ) ) ;
#284 = AXIS2_PLACEMENT_3D ( 'NONE', #293, #195, #222 ) ;
#285 = FILL_AREA_STYLE_COLOUR ( '', #290 ) ;
#286 = AXIS2_PLACEMENT_3D ( 'NONE', #261, #9, #185 ) ;
#287 =( GEOMETRIC_REPRESENTATION_CONTEXT ( 3 ) GLOBAL_UNCERTAINTY_ASSIGNED_CONTEXT ( ( #219 ) ) GLOBAL_UNIT_ASSIGNED_CONTEXT ( ( #325, #103, #24 ) ) REPRESENTATION_CONTEXT ( 'NONE', 'WORKASPACE' ) );
#288 = CYLINDRICAL_SURFACE ( 'NONE', #278, 8.000000000000000000 ) ;
#289 = CARTESIAN_POINT ( 'NONE',  ( 0.0000000000000000000, 6.123233995736766300E-016, -5.000000000000000000 ) ) ;
#290 = COLOUR_RGB ( '',0.9372549019607843100, 0.6784313725490196400, 0.1960784313725490200 ) ;
#291 = FACE_OUTER_BOUND ( 'NONE', #246, .T. ) ;
#292 = DIRECTION ( 'NONE',  ( 0.0000000000000000000, 0.0000000000000000000, 1.000000000000000000 ) ) ;
#293 = CARTESIAN_POINT ( 'NONE',  ( 0.0000000000000000000, 0.0000000000000000000, 0.0000000000000000000 ) ) ;
#294 = DIRECTION ( 'NONE',  ( 0.0000000000000000000, 0.0000000000000000000, 1.000000000000000000 ) ) ;
#295 = SURFACE_STYLE_FILL_AREA ( #217 ) ;
#296 = STYLED_ITEM ( 'NONE', ( #3 ), #43 ) ;
#297 = SURFACE_SIDE_STYLE ('',( #36 ) ) ;
#298 = DIRECTION ( 'NONE',  ( 0.0000000000000000000, 0.0000000000000000000, 1.000000000000000000 ) ) ;
#299 = FILL_AREA_STYLE ('',( #65 ) ) ;
#300 = CARTESIAN_POINT ( 'NONE',  ( 122.6274169979695300, 6.123233995736766300E-016, -5.000000000000000000 ) ) ;
#301 = DIRECTION ( 'NONE',  ( 0.0000000000000000000, 0.0000000000000000000, -1.000000000000000000 ) ) ;
#302 = UNCERTAINTY_MEASURE_WITH_UNIT (LENGTH_MEASURE( 1.000000000000000100E-005 ), #101, 'distance_accuracy_value', 'NONE');
#303 = AXIS2_PLACEMENT_3D ( 'NONE', #133, #277, #165 ) ;
#304 = AXIS2_PLACEMENT_3D ( 'NONE', #279, #85, #182 ) ;
#305 = DIRECTION ( 'NONE',  ( -1.000000000000000000, -0.0000000000000000000, -0.0000000000000000000 ) ) ;
#306 =( NAMED_UNIT ( * ) PLANE_ANGLE_UNIT ( ) SI_UNIT ( $, .RADIAN. ) );
#307 =( LENGTH_UNIT ( ) NAMED_UNIT ( * ) SI_UNIT ( .MILLI., .METRE. ) );
#308 = DIRECTION ( 'NONE',  ( -1.000000000000000000, -0.0000000000000000000, -0.0000000000000000000 ) ) ;
#309 = PRODUCT_DEFINITION_SHAPE ( 'NONE', 'NONE',  #341 ) ;
#310 = ORIENTED_EDGE ( 'NONE', *, *, #139, .F. ) ;
#311 =( GEOMETRIC_REPRESENTATION_CONTEXT ( 3 ) GLOBAL_UNCERTAINTY_ASSIGNED_CONTEXT ( ( #302 ) ) GLOBAL_UNIT_ASSIGNED_CONTEXT ( ( #101, #41, #174 ) ) REPRESENTATION_CONTEXT ( 'NONE', 'WORKASPACE' ) );
#312 =( REPRESENTATION_RELATIONSHIP ('NONE','NONE', #75, #177 ) REPRESENTATION_RELATIONSHIP_WITH_TRANSFORMATION ( #228 )SHAPE_REPRESENTATION_RELATIONSHIP( ) );
#313 = PRODUCT_DEFINITION ( 'UNKNOWN', '', #92, #119 ) ;
#314 = DIRECTION ( 'NONE',  ( 1.000000000000000000, 0.0000000000000000000, 0.0000000000000000000 ) ) ;
#315 =( GEOMETRIC_REPRESENTATION_CONTEXT ( 3 ) GLOBAL_UNCERTAINTY_ASSIGNED_CONTEXT ( ( #328 ) ) GLOBAL_UNIT_ASSIGNED_CONTEXT ( ( #275, #262, #84 ) ) REPRESENTATION_CONTEXT ( 'NONE', 'WORKASPACE' ) );
#316 = ORIENTED_EDGE ( 'NONE', *, *, #122, .F. ) ;
#317 = DIRECTION ( 'NONE',  ( 0.0000000000000000000, 0.0000000000000000000, 1.000000000000000000 ) ) ;
#318 = DIRECTION ( 'NONE',  ( 0.0000000000000000000, 0.0000000000000000000, -1.000000000000000000 ) ) ;
#319 = MECHANICAL_DESIGN_GEOMETRIC_PRESENTATION_REPRESENTATION (  '', ( #31 ), #315 ) ;
#320 = VERTEX_POINT ( 'NONE', #82 ) ;
#321 = ADVANCED_FACE ( 'NONE', ( #194 ), #160, .F. ) ;
#322 = FILL_AREA_STYLE_COLOUR ( '', #335 ) ;
#323 = ORIENTED_EDGE ( 'NONE', *, *, #128, .T. ) ;
#324 = SURFACE_SIDE_STYLE ('',( #5 ) ) ;
#325 =( LENGTH_UNIT ( ) NAMED_UNIT ( * ) SI_UNIT ( .MILLI., .METRE. ) );
#326 = MANIFOLD_SOLID_BREP ( 'Tube', #71 ) ;
#327 = CARTESIAN_POINT ( 'NONE',  ( 122.6274169979695300, 0.0000000000000000000, 0.0000000000000000000 ) ) ;
#328 = UNCERTAINTY_MEASURE_WITH_UNIT (LENGTH_MEASURE( 1.000000000000000100E-005 ), #275, 'distance_accuracy_value', 'NONE');
#329 =( LENGTH_UNIT ( ) NAMED_UNIT ( * ) SI_UNIT ( .MILLI., .METRE. ) );
#330 = FILL_AREA_STYLE_COLOUR ( '', #98 ) ;
#331 =( GEOMETRIC_REPRESENTATION_CONTEXT ( 3 ) GLOBAL_UNCERTAINTY_ASSIGNED_CONTEXT ( ( #209 ) ) GLOBAL_UNIT_ASSIGNED_CONTEXT ( ( #30, #221, #244 ) ) REPRESENTATION_CONTEXT ( 'NONE', 'WORKASPACE' ) );
#332 = LINE ( 'NONE', #86, #234 ) ;
#333 =( NAMED_UNIT ( * ) SI_UNIT ( $, .STERADIAN. ) SOLID_ANGLE_UNIT ( ) );
#334 = CARTESIAN_POINT ( 'NONE',  ( 0.0000000000000000000, 0.0000000000000000000, 0.0000000000000000000 ) ) ;
#335 = COLOUR_RGB ( '',0.9372549019607843100, 0.6784313725490196400, 0.1960784313725490200 ) ;
#336 = MECHANICAL_DESIGN_GEOMETRIC_PRESENTATION_REPRESENTATION (  '', ( #258 ), #48 ) ;
#337 = COLOUR_RGB ( '',0.0000000000000000000, 0.5843137254901961100, 0.9058823529411764700 ) ;
#338 = VERTEX_POINT ( 'NONE', #289 ) ;
#339 = CIRCLE ( 'NONE', #304, 8.000000000000000000 ) ;
#340 = AXIS2_PLACEMENT_3D ( 'NONE', #131, #164, #57 ) ;
#341 = NEXT_ASSEMBLY_USAGE_OCCURRENCE ( 'NAUO1', ' ', ' ', #313, #272, $ ) ;
ENDSEC;
END-ISO-10303-21;
